Home » A » Akira Yamaoka »

Akira Yamaoka - Love Psalm Bass

Artists:  A B C D E F G H I J K L M N O P Q R S T U V W X Y Z # 

Love Psalm Bass

(ver. 1) Click to play this song!
Akira Yamaoka
Intro at 0:01
G|/17~---------------|/17~16-14~-12h14p12----------------|
D|-------------------|--------------------14-12----------|
A|-------------------|--------------------------15-12-10-|
E|-------------------|-----------------------------------|

Verse:
G|----------------------------------|
D|------------------------------5---| x4
A|0-00-0-0-00-5h7-0-00-0-0-0-5p7-7--|
E|----------------------------------|

Chorus:
G|----------------------------------|
D|----------------------------------| x3
A|----------------------------------|
E|11111111111333331111111111133333--|

After the 3rd time, it goes like this:
G|----------------------------------|
D|----------------------------------|
A|----------------------------------|
E|11111111111333331111111133333333--|

Verse2:
G|-----------------------------------|----------------------/7-5-------------|
D|-------------------------------5---|---------------------------7-5---5-----|
A|0~-00-0-0-00-5h7-0-00-0-0-0-5p7-7--|0~-00-0-0-00-5h7-0-00----------7---7-5-|
E|-----------------------------------|---------------------------------------|

G|-----------------------------------|--------------------------5h7---------|
D|-------------------------------5---|------------------------------5h7-----| 
A|0~-00-0-0-00-5h7-0-00-0-0-0-5p7-7--|0~-00-0-0-00-5h7-0-00-0-0---------7\--|
E|-----------------------------------|--------------------------------------|

Chorus:
G|----------------------------------|-------------------------------------|
D|----------------------------------|-------------------------------------|
A|------------------------------1---|-------------------------------------|
E|111111111113333311111111111113-3--|1111111111133333111111113333333/15\--|

Chorus2:
G|----------------------------------|-------------------------------------|
D|----------------------------------|-------------------------------------|
A|----------------------------------|-------------------------------------|
E|5-5-3-33-3-5-3-5-5-3-33-3-1-3-----|-5-5-3-33-3-5-3-5-5-3-33-3-1-3-5~----|

At around 2:28 you can hear a fill that goes like this:
G|----------------------------------|
D|-10p7-----------------------------|
A|-----7-5-7-5-3-5p3----------------|
E|----------------------------------|

Which goes straight into the next part

G|------------------------------------------|
D|------------------------------------------| x4*
A|-0000-3333-5555-3353-0000-3333-5555-7753--|
E|------------------------------------------|
*Note that on the 4th time it goes straight into the next part below.

Chorus 2 again:
G|----------------------------------|   x3 |-------------------------------------|
D|----------------------------------|      |-------------------------------------|
A|----------------------------------|      |-------------------------------------|
E|5-5-3-33-3-5-3-5-5-3-33-3-1-3-----| Then>|-5-5-3-33-3-5-3-5-5-3-33-3-1-3-5~----|

Outro:
G|-------------------------------------|G|-------------------------------------|
D|-------------------------------------|D|---------10p7-5-7--------------------|
A|0~----------------0~-----------------|A|-0~---------------7-0~---------------|
E|-------------~-----------------------|E|-------------------------------------|

G|-------------------------------------|-------------------------------------|
D|-------------------------------------|-------------------------------------|
A|-0~---------------0~-----------------|-0~---------------0~-----------------|
E|-------------------------------------|----------------------5--3--5~-------|
            
Submit corrections

↑ Back to top | Tablatures and chords for acoustic guitar and electric guitar, ukulele, drums are parodies/interpretations of the original songs. You may use it for private study, scholarship, research or language learning purposes only