Home » A » Akira Yamaoka »

Akira Yamaoka - Blow Back Tabs

Artists:  A B C D E F G H I J K L M N O P Q R S T U V W X Y Z # 

Blow Back Tabs

(ver. 1) Click to play this song!
Akira Yamaoka
VERSE: (with delay)
e|----------------------------------|----------------------------------|
B|----------------------------------|----------------------------------|
G|-----0------(0)------(0)------(0)-|-----2------(2)------(2)------(2)-|
D|---0-----(0)------(0)------(0)----|---0-----(0)------(0)------(0)----|
A|-1----(1)------(1)------(1)-------|-1----(1)------(1)------(1)-------|
E|----------------------------------|----------------------------------| [x3]

CHORUS:
  Guitar 1
e|-------------------------------------------------|
B|-------------------------------------------------|
G|-------------------------------------------------|
D|-----0-----0-----0-----0-----0-----0-----0-----0-|
A|---0-----0-----0-----0-----0-----0-----0-----0---|
E|-5-----5-----5-----5-----6-----6-----6-----6-----| [x4]
  Guitar 2
e|-------------------|-------------------|
B|-------------------|-------------------|
G|----9-----9-9----9-|----7-----7-7----7-|
D|-7-----7------7----|-8-----8------8----|
A|-------------------|-------------------|
E|-------------------|-------------------| [x4]

POST-CHORUS:
e|-------------------------------------|
B|-------------------------------------|
G|-------------------------------------|
D|-------------------------------------|
A|---0--------0--------0--------0------|
E|-1--------0--------1--------0--------|
            
Submit corrections

↑ Back to top | Tablatures and chords for acoustic guitar and electric guitar, ukulele, drums are parodies/interpretations of the original songs. You may use it for private study, scholarship, research or language learning purposes only