» » »

Aimee Mann - Little Tornado Tabs

Artists:  A B C D E F G H I J K L M N O P Q R S T U V W X Y Z # 

Little Tornado Tabs

(ver. 1) Click to play this song!
Aimee Mann
 Rating:
4/5 (4 votes)

 Little Tornado lessons Tabs too difficult? Try these video lessons and learn fast
 
                Aimee Mann - Little Tornado

Standard Tuning, capo 6th fret

Verse

e|--0-0-0-0-0-0-0-0-0-0-0-0-0-0-0-|
B|--1-1-1-1-1-1-1-1-1-1-1-1-1-1-1-|
G|--2-2-2-2-2-2-2-2-2-2-2-2-2-2-2-|...
D|--2-2-2-2-2-2-2-2-2-2-2-2-2-2-2-|
A|-0-----------0-----------0------|
E|-----------3-----------3--------|

Chorus

e|--1--0-0-0-0-0------|
B|--1--1-1-1-1-1------|
G|--2--0-0-0-0-0------|
D|--3--2-2-2-2-2------|
A|--3-3---------3-2-0-|
E|-1------------------|

Haven't figured out the bridge yet. Enjoy!

- N McAfee
            
Submit corrections


        Little Tornado lessons Hard to play? Try these video lessons and learn fast Little Tornado lessons
        
↑ Back to top | Tablatures and chords for acoustic guitar and electric guitar, ukulele, drums are parodies/interpretations of the original songs. You may use it for private study, scholarship, research or language learning purposes only