» » »

Aimee Mann - Driving Sideways Tabs

Artists:  A B C D E F G H I J K L M N O P Q R S T U V W X Y Z # 

Driving Sideways Tabs

(ver. 1) Click to play this song!
Aimee Mann
 Rating:
4/5 (4 votes)

 Driving Sideways lessons Tabs too difficult? Try these video lessons and learn fast
 
                Driving Sideways - Aimee Mann

~ Solo & Riffs ~ 

Israel, October  5, 2013

The chords transcription on this site is spot on, here are the lead guitar parts.

Lead guitar - Regular tuning
Rhythm guitar - Capo on 1st



Small fills:

    1:12                       1:16        1:20          1:28

e|------------------------|-------------|-------------|-------11vv---|
B|-----------------8b9r8--|-------------|-------------|--------------|
G|------------------------|---14b15r14--|-------------|---/12--------|
D|------8--8/10-8---------|-------------|-------------|--------------|
A|--6h8-------------------|-------------|--12h13-12---|--------------|
E|------------------------|-------------|-------------|--------------|


    
   1:34  and in other similar vocal parts
e|--------------------------------------------------|----------|
B|----------------------11/-------------------------|----------|
G|--12/----8/----10/--------------12/----8/---------|----------|
D|--------------------------------------------10/---|--10-8vv--|
A|--------------------------------------------------|----------|
E|--------------------------------------------------|----------|


  1:58
e|------------------------------------------|
B|------------------------------------------|
G|--/12---10-/12---10-/12----10-12b13r12----|
D|------------------------------------------|
A|------------------------------------------|
E|------------------------------------------|



Main Solo  (3:09):
e|-------------|-----------------------------------|-----------|
B|---16vvvvv---|-----------------------------------|-----------|
G|-------------|-----------------------------------|-----------|
D|-------------|--17-17-15-13---15-15b17r15-13-----|-----------|
A|-------------|-------------------------------15--|--15^--13--|
E|-------------|-----------------------------------|-----------|


e|---------------------|-------------------------------------------|
B|---------------------|-------------------------------------------|
G|-----------12/15vvbb-|---------------------17-15-----------------|
D|--8/13vvv------------|--17-17-15-13--15-17-------17-15-13--------|
A|---------------------|------------------------------------15-13--|
E|---------------------|-------------------------------------------|


e|---------------------------------------|-----------------|
B|---------------------------13/16-16vv--|---16vvvvvvvvv---|
G|---------------12/15-15vv--------------|-----------------|
D|--10/13-13vv---------------------------|-----------------|
A|---------------------------------------|-----------------|
E|---------------------------------------|-----------------|
            
Submit corrections


        Driving Sideways lessons Hard to play? Try these video lessons and learn fast Driving Sideways lessons
        
↑ Back to top | Tablatures and chords for acoustic guitar and electric guitar, ukulele, drums are parodies/interpretations of the original songs. You may use it for private study, scholarship, research or language learning purposes only