Home » A » A Great Big Pile Of Leaves »

A Great Big Pile Of Leaves - Learning Curves Tabs

Artists:  A B C D E F G H I J K L M N O P Q R S T U V W X Y Z # 

Learning Curves Tabs

(ver. 1) Click to play this song!
A Great Big Pile Of Leaves
[Intro]
Guitar 1: (0:00)
e|----|----------|----------|-------------------|---------------|----------|----------|--------------------|
B|----|----------|----------|-------------------|---------------|----------|----------|--------------------|
G|-4//|7--4/7--4/|7--4/7--4-|6h7p6------6-------|6-----------4/7|---4/7--4/|7--4/7--4-|6h7p6-------6-------|
D|----|----------|----------|--------7--------7-|------7s4-7----|----------|----------|---------7--------7-|
A|----|----------|----------|-------------------|---------------|----------|----------|--------------------|
E|----|----------|----------|-------------------|---------------|----------|----------|--------------------|
   4   1  & 3  &  1  & 3  4  1 e &   &  3     &  1     & 3 & 4 &    & 3  &  1  & 3  4  1 e &    &  3     &
 
e|---------------|-----------|------------|--------------------|---------------|-----------|------------|
B|---------------|-----------|------------|--------------------|---------------|-----------|------------|
G|6-----------4/7|---9/11--9/|11--9/11--9-|6h7p6-------6-------|6-----------4/7|---9/11--9/|11--9/11--9-|
D|------7s4-7----|-----------|------------|---------7--------7-|------7s4-7----|-----------|------------|
A|---------------|-----------|------------|--------------------|---------------|-----------|------------|
E|---------------|-----------|------------|--------------------|---------------|-----------|------------|
  1     & 3 & 4 &    & 3   &  1   & 3   4  1 e &    &  3     &  1     & 3 & 4 &    & 3   &  1   & 3   4
 
e|--------------------|----------------|
B|--------------------|----------------|
G|6h7p6-------6-------|6-----------4/7~|
D|---------7--------7-|------7s4-7-----|
A|--------------------|----------------|
E|--------------------|----------------|
  1 e &    &  3     &  1     & 3 & 4 &
 
Guitar 2: (0:00)
e|------------|------------|-----------|-------------|------------|------------|
B|---3------3-|---3------3-|---5--5--5-|--5---------3|---3------3-|---3------3-|
G|---4------4-|---4------4-|---2--2--2-|--2-----2-4--|---4------4-|---4------4-|
D|---4------4-|---4------4-|---4--4--4-|--4---4------|---4------4-|---4------4-|
A|------------|------------|-----------|-------------|------------|------------|
E|------------|------------|-----------|-------------|------------|------------|
     2      4     2      4     2  3  4    2   3 & 4 &    2      4     2      4
 
e|------------------------------|------------------------------|
B|--------2h3p2----------5------|---------2-------------------3|
G|----2h4------------2-------2--|-----2-------2-------2---4----|
D|2h4------------4--------------|4----------------4------------|
A|------------------------------|------------------------------|
E|------------------------------|------------------------------|
  1 e & a 2 e &  3   &   4   &   1    &   2   &   3   &   4   &
 
e|------------|------------|-----------|-------------|------------|------------|
B|---3------3-|---3------3-|---5--5--5-|--5---------3|---3------3-|---3------3-|
G|---4------4-|---4------4-|---2--2--2-|--2-----2-4--|---4------4-|---4------4-|
D|---4------4-|---4------4-|---4--4--4-|--4---4------|---4------4-|---4------4-|
A|------------|------------|-----------|-------------|------------|------------|
E|------------|------------|-----------|-------------|------------|------------|
     2      4     2      4     2  3  4    2   3 & 4 &    2      4     2      4
 
e|------------------------------|------------------------------|
B|--------2h3p2----------5------|---------2---------------5----|
G|----2h4------------2-------2--|-----2-------2-------2--------|
D|2h4------------4--------------|4----------------4------------|
A|------------------------------|------------------------------|
E|------------------------------|------------------------------|
  1 e & a 2 e &  3   &   4   &   1    &   2   &   3   &   4   &
 
 
[Verse 1]
Guitar 2(0:28)
e|-------------|--------|-------------|--------|
B|----3~-------|--------|----5~-------|--------|
G|----4~-------|--------|----2~-------|--------|  x2
D|----4~-------|--------|----4~-------|--------|
A|-------------|--------|-------------|--------|
E|-------------|--------|-------------|--------|
      2                      2
 
e|---------------|---------------|---------------|------5---5----|
B|3-----3--------|5-----5--------|3-----3--------|5-----5---5----|
G|4-----4--------|2-----2--------|4-----4--------|2--------------|
D|4-----4--------|4-----4--------|4-----4--------|4--------------|
A|---------------|---------------|---------------|---------------|
E|---------------|---------------|---------------|---------------|
  1 & 2 & 3 & 4 & 1 & 2 & 3 & 4 & 1 & 2 & 3 & 4 & 1 & 2 & 3 & 4 &
 
e|---------------|------5--------|---------------|------5---5----|
B|3-----3--------|5-----5--------|3-----3--------|5-----5---5----|
G|4-----4--------|2-----2--------|4-----4--------|2--------------|
D|4-----4--------|4-----4--------|4-----4--------|4--------------|
A|---------------|---------------|---------------|---------------|
E|---------------|---------------|---------------|---------------|
  1 & 2 & 3 & 4 & 1 & 2 & 3 & 4 & 1 & 2 & 3 & 4 & 1 & 2 & 3 & 4 &
 
Guitar 1 (0:42)
e|------10-------10----|------10-------10----|------10-------10----|------12-------10----|
B|---10-------10-------|---10-------10-------|---10-------10-------|---10-------10-------|
G|11-------11----------|11-------11----------|11-------11----------|11-------11----------| x2
D|---------------------|---------------------|---------------------|---------------------|
A|---------------------|---------------------|---------------------|---------------------|
E|---------------------|---------------------|---------------------|---------------------|
  1  &  2  &  3  &      1  &  2  &  3  &      1  &  2  &  3  &      1  &  2  &  3  &
 
 
[Chorus 1]
Guitar 1 (0:56)
e|----|----------|----------|-------------------|---------------|----------|----------|--------------------|
B|----|----------|----------|-------------------|---------------|----------|----------|--------------------|
G|-4//|7--4/7--4/|7--4/7--4-|6h7p6------6-------|6-----------4/7|---4/7--4/|7--4/7--4-|6h7p6-------6-------|
D|----|----------|----------|--------7--------7-|------7s4-7----|----------|----------|---------7--------7-|
A|----|----------|----------|-------------------|---------------|----------|----------|--------------------|
E|----|----------|----------|-------------------|---------------|----------|----------|--------------------|
   4   1  & 3  &  1  & 3  4  1 e &   &  3     &  1     & 3 & 4 &    & 3  &  1  & 3  4  1 e &    &  3     &
 
e|---------------|
B|---------------|
G|6-----------4/7|
D|------7s4-7----|
A|---------------|
E|---------------|
  1     & 3 & 4 &
 
Guitar 2 (0:56)
e|------------|------------|-----------|-------------|------------|------------|
B|---3------3-|---3------3-|---5--5--5-|--5---------3|---3------3-|---3------3-|
G|---4------4-|---4------4-|---2--2--2-|--2-----2-4--|---4------4-|---4------4-|
D|---4------4-|---4------4-|---4--4--4-|--4---4------|---4------4-|---4------4-|
A|------------|------------|-----------|-------------|------------|------------|
E|------------|------------|-----------|-------------|------------|------------|
     2      4     2      4     2  3  4    2   3 & 4 &    2      4     2      4
 
e|------------------------------|------------------------------|
B|--------2h3p2----------5------|---------2-------------------3|
G|----2h4------------2-------2--|-----2-------2-------2---4----|
D|2h4------------4--------------|4----------------4------------|
A|------------------------------|------------------------------|
E|------------------------------|------------------------------|
  1 e & a 2 e &  3   &   4   &   1    &   2   &   3   &   4   &
 
 
[Verse 2]
Guitar 2 (1:12)
e|-------------|--------|-------------|--------|
B|----3~-------|--------|----5~-------|--------|
G|----4~-------|--------|----2~-------|--------|  x2
D|----4~-------|--------|----4~-------|--------|
A|-------------|--------|-------------|--------|
E|-------------|--------|-------------|--------|
      2                      2
 
e|---------------|---------------|---------------|------5---5----|
B|3-----3--------|5-----5--------|3-----3--------|5-----5---5----|
G|4-----4--------|2-----2--------|4-----4--------|2--------------|
D|4-----4--------|4-----4--------|4-----4--------|4--------------|
A|---------------|---------------|---------------|---------------|
E|---------------|---------------|---------------|---------------|
  1 & 2 & 3 & 4 & 1 & 2 & 3 & 4 & 1 & 2 & 3 & 4 & 1 & 2 & 3 & 4 &
 
e|---------------|------5--------|---------------|------5---5----|
B|3-----3--------|5-----5--------|3-----3--------|5-----5---5----|
G|4-----4--------|2-----2--------|4-----4--------|2--------------|
D|4-----4--------|4-----4--------|4-----4--------|4--------------|
A|---------------|---------------|---------------|---------------|
E|---------------|---------------|---------------|---------------|
  1 & 2 & 3 & 4 & 1 & 2 & 3 & 4 & 1 & 2 & 3 & 4 & 1 & 2 & 3 & 4 &
 
Guitar 1 (1:26)
e|------10-------10----|------10-------10----|------10-------10----|------12-------10----|
B|---10-------10-------|---10-------10-------|---10-------10-------|---10-------10-------|
G|11-------11----------|11-------11----------|11-------11----------|11-------11----------| x2
D|---------------------|---------------------|---------------------|---------------------|
A|---------------------|---------------------|---------------------|---------------------|
E|---------------------|---------------------|---------------------|---------------------|
  1  &  2  &  3  &      1  &  2  &  3  &      1  &  2  &  3  &      1  &  2  &  3  &
 
 
[Bridge]
Guitar 2 (1:40) (heavy fuzz)
e|-----|-----|-----|-----|
B|3~~--|-----|5~~--|-----|
G|4~~--|-----|2~~--|-----| x2
D|4~~--|-----|4~~--|-----|
A|0----|-----|0----|-----|
E|-----|-----|-----|-----|
 
e|---------------|---------------|---------------|---------------|
B|3-3-3-3-3-3-3-3|3-3-3-3-3-3-3--|5-5-5-5-5-5-5-5|5-5-5-5-5-5-5--|
G|4-4-4-4-4-4-4-4|4-4-4-4-4-4-4--|2-2-2-2-2-2-2-2|2-2-2-2-2-2-2--| x2
D|4-4-4-4-4-4-4-4|4-4-4-4-4-4-4--|4-4-4-4-4-4-4-4|4-4-4-4-4-4-4--|
A|---------------|---------------|---------------|---------------|
E|---------------|---------------|---------------|---------------|
 
 
[Verse 3]
Guitar 1 (2:09)
e|------10-------10----|------10-------10----|------10-------10----|------12-------10----|
B|---10-------10-------|---10-------10-------|---10-------10-------|---10-------10-------|
G|11-------11----------|11-------11----------|11-------11----------|11-------11----------| x3
D|---------------------|---------------------|---------------------|---------------------|
A|---------------------|---------------------|---------------------|---------------------|
E|---------------------|---------------------|---------------------|---------------------|
  1  &  2  &  3  &      1  &  2  &  3  &      1  &  2  &  3  &      1  &  2  &  3  &
 
e|------10-------10----|------10-------10----|------10-------10----|------------11-------|
B|---10-------10-------|---10-------10-------|---10-------10-------|10----8--------------|
G|11-------11----------|11-------11----------|11-------11----------|---------------------|
D|---------------------|---------------------|---------------------|---------------------|
A|---------------------|---------------------|---------------------|---------------------|
E|---------------------|---------------------|---------------------|---------------------|
  1  &  2  &  3  &      1  &  2  &  3  &      1  &  2  &  3  &      1  &  2  &  3  &
 
Guitar 2 (2:09)
 
e|---------------|---------------|---------------|------5---5----|
B|3-----3--------|5-----5--------|3-----3--------|5-----5---5----|
G|4-----4--------|2-----2--------|4-----4--------|2--------------|
D|4-----4--------|4-----4--------|4-----4--------|4--------------|
A|---------------|---------------|---------------|---------------|
E|---------------|---------------|---------------|---------------|
  1 & 2 & 3 & 4 & 1 & 2 & 3 & 4 & 1 & 2 & 3 & 4 & 1 & 2 & 3 & 4 &
 
e|---------------|------5--------|---------------|------5---5----|
B|3-----3--------|5-----5--------|3-----3--------|5-----5---5----|
G|4-----4--------|2-----2--------|4-----4--------|2--------------|
D|4-----4--------|4-----4--------|4-----4--------|4--------------|
A|---------------|---------------|---------------|---------------|
E|---------------|---------------|---------------|---------------|
  1 & 2 & 3 & 4 & 1 & 2 & 3 & 4 & 1 & 2 & 3 & 4 & 1 & 2 & 3 & 4 &
 
e|---------------|---------------|---------------|------5---5----|
B|3-----3--------|5-----5--------|3-----3--------|5-----5---5----|
G|4-----4--------|2-----2--------|4-----4--------|2--------------|
D|4-----4--------|4-----4--------|4-----4--------|4--------------|
A|---------------|---------------|---------------|---------------|
E|---------------|---------------|---------------|---------------|
  1 & 2 & 3 & 4 & 1 & 2 & 3 & 4 & 1 & 2 & 3 & 4 & 1 & 2 & 3 & 4 &
 
e|---------------|------5--------|---------------|--------5------|
B|3-----3--------|5-----5--------|3-----3--------|--------5------|
G|4-----4--------|2-----2--------|4-----4--------|----2----------|
D|4-----4--------|4-----4--------|4-----4--------|4--------------|
A|---------------|---------------|---------------|---------------|
E|---------------|---------------|---------------|---------------|
  1 & 2 & 3 & 4 & 1 & 2 & 3 & 4 & 1 & 2 & 3 & 4 & 1 & 2 & 3 & 4 &
            
Submit corrections

↑ Back to top | Tablatures and chords for acoustic guitar and electric guitar, ukulele, drums are parodies/interpretations of the original songs. You may use it for private study, scholarship, research or language learning purposes only