Home » A » A Great Big Pile Of Leaves »

A Great Big Pile Of Leaves - Ambiversion Tabs

Artists:  A B C D E F G H I J K L M N O P Q R S T U V W X Y Z # 

Ambiversion Tabs

(ver. 1) Click to play this song!
A Great Big Pile Of Leaves
(Intro)
New song off the album You're Always on my Mind.

Buy the album on itunes or on agreatbigpileofleaves.com

This is my first tab so lmk if you think anything's wrong, I think it sounds right.


-------------------------------------------------------------|
--------------------------------------------------10--7------|
----7s14--12--11--12--11----7s9--7s9--7--9--7--9-------------|
-------------------------------------------------------------|
-------------------------------------------------------------|
-------------------------------------------------------------|

-------------------------------------------------------------|
-------------------------------------------------------------|
----7s14--12--11--12--11----9--7--9--9--9s11--7--------------|
-------------------------------------------------9--7--------|
-------------------------------------------------------------|
-------------------------------------------------------------|


Enjoy! -Lupac
            
Submit corrections

↑ Back to top | Tablatures and chords for acoustic guitar and electric guitar, ukulele, drums are parodies/interpretations of the original songs. You may use it for private study, scholarship, research or language learning purposes only