Home » A » Agent Orange »

Agent Orange - Everything Turns Grey Chords

Artists:  A B C D E F G H I J K L M N O P Q R S T U V W X Y Z # 

Everything Turns Grey Chords

(ver. 1) Click to play this song!
Agent Orange
Intro riff
e|-----------------------|
B|-----------------------|
G|-----------------------|
D|----7-5----------------|   
A|--------7-6-5----------|     3x
E|--------------7-6-5----|

    A   G   F   G

A                                   G
Things don't seem to be as easy as they used to be
               F
It's getting harder everyday to think
     G
Of better things to say
A 
About what's going on around you
G
And what's happening inside you
       F
When it's time to change you won't know how
    E 
It won't matter here from now

Chorus Riff
e|-----------------------|
B|-----------------------|
G|-----------------------|
D|-----------------------|
A|-----------------------|
E|-------1-0-1-3-1-3-----|

(Chorus riff)       E              E
No matter what you think or do or say
(Chorus riff)        
Everything turns grey

e|-----------------------|
B|-----------------------|
G|-----------------------|
D|----7-5----------------|   
A|--------7-6-5----------|    
E|--------------7-6-5----|

    A   G   F   G

A
This is it, the darkest hour
G
Isn't it depressing how our
F
Minds create an atmosphere
        G                          A
That won't happen here unless we make some new demands
              G
To grasp the future in our hands
            F
You know I wish I could but it's too late
       E
For senseless minds that love to hate

(Chorus riff)       E              E
No matter what you think or do or say
(Chorus riff)        
Everything turns grey

Solo : A  G  F  G  2x

(Chorus riff)       E              E
No matter what you think or do or say
(Chorus riff)        
Everything turns grey

e|-----------------------|
B|-----------------------|
G|-----------------------|
D|----7-5----------------|   
A|--------7-6-5----------|    
E|--------------7-6-5----|            
Submit corrections

↑ Back to top | Tablatures and chords for acoustic guitar and electric guitar, ukulele, drums are parodies/interpretations of the original songs. You may use it for private study, scholarship, research or language learning purposes only