Home » A » Agent Orange »

Agent Orange - El Dorado Tabs

Artists:  A B C D E F G H I J K L M N O P Q R S T U V W X Y Z # 

El Dorado Tabs

(ver. 1) Click to play this song!
Agent Orange
-------------------------------------------------------------------------------
Living In Darkness
-------------------------------------------------------------------------------

Tuning: 
Guitar 1: EADGBE (Standard)

e|---------------------------------|  e|-------------------------------------|
B|---------------------------------|  B|-------------------------------------|
G|--------------9---------------P\-|  G|-8/9-----------------8/9-----8/9-----|
D|--------------7---------------P\-|  D|-6/7-7-7-7-7-7-7-7-7-6/7-7-7-6-9-7-7-|
A|---------------------------------|  A|----[x-x-x-x-x-x-x-x]---[x-x]---[x-x]|
E|-7/8-7/8-7/8---------------------|  E|-------------------------------------| x8

e|-----------------------------------------------------------------------|
B|-----------------------------------------------------------------------|
G|-9--------7-7-7-7-7-7-7-7-7-7-7-7-7-7-7-7-9----8/9-8/9-8/9-8/9-8/9-8/9-|
D|-7--------5-5-5-5-5-5-5-5-5-5-5-5-5-5-5-5-7----6/7-6/7-6/7-6/7-6/7-6/7-|
A|-----------------------------------------------------------------------|
E|-----------------------------------------------------------------------|

e|----------------------------------------------------------------------|
B|----------------------------------------------------------------------|
G|-9----8/9-8/9-8/9-8/9-8/9-8/9----7-7-7-7-7-7-7-7-7-7-7-7-7-7-7-7-9----|
D|-7----6/7-6/7-6/7-6/7-6/7-6/7----5-5-5-5-5-5-5-5-5-5-5-5-5-5-5-5-7----|
A|----------------------------------------------------------------------|
E|----------------------------------------------------------------------|

e|--------------------------------|  e|-------------------------------------|
B|--------------------------------|  B|-------------------------------------|
G|-8/9-8/9-8/9-8/9-8/9-8/9--------|  G|-8/9-----------------8/9-----8/9-----|
D|-6/7-6/7-6/7-6/7-6/7-6/7--------|  D|-6/7-7-7-7-7-7-7-7-7-6/7-7-7-6-9-7-7-|
A|--------------------------------|  A|----[x-x-x-x-x-x-x-x]---[x-x]---[x-x]|
E|--------------------------------|  E|-------------------------------------| x8

e|-----------------------------------------------------------------------|
B|-----------------------------------------------------------------------|
G|-9--------7-7-7-7-7-7-7-7-7-7-7-7-7-7-7-7-9----8/9-8/9-8/9-8/9-8/9-8/9-|
D|-7--------5-5-5-5-5-5-5-5-5-5-5-5-5-5-5-5-7----6/7-6/7-6/7-6/7-6/7-6/7-|
A|-----------------------------------------------------------------------|
E|-----------------------------------------------------------------------|

e|----------------------------------------------------------------------|
B|----------------------------------------------------------------------|
G|-9----8/9-8/9-8/9-8/9-8/9-8/9----7-7-7-7-7-7-7-7-7-7-7-7-7-7-7-7-9----|
D|-7----6/7-6/7-6/7-6/7-6/7-6/7----5-5-5-5-5-5-5-5-5-5-5-5-5-5-5-5-7----|
A|----------------------------------------------------------------------|
E|----------------------------------------------------------------------|

e|--------------------------------|  e|-------------------------------------|
B|--------------------------------|  B|-------------------------------------|
G|-8/9-8/9-8/9-8/9-8/9-8/9--------|  G|-8/9-----------------8/9-----8/9-----|
D|-6/7-6/7-6/7-6/7-6/7-6/7--------|  D|-6/7-7-7-7-7-7-7-7-7-6/7-7-7-6-9-7-7-|
A|--------------------------------|  A|----[x-x-x-x-x-x-x-x]---[x-x]---[x-x]|
E|--------------------------------|  E|-------------------------------------| x8

e|-----------------------------------------------------------------------|
B|-----------------------------------------------------------------------|
G|-9--------7-7-7-7-7-7-7-7-7-7-7-7-7-7-7-7-9----8/9-8/9-8/9-8/9-8/9-8/9-|
D|-7--------5-5-5-5-5-5-5-5-5-5-5-5-5-5-5-5-7----6/7-6/7-6/7-6/7-6/7-6/7-|
A|-----------------------------------------------------------------------|
E|-----------------------------------------------------------------------|

e|----------------------------------------------------------------------|
B|----------------------------------------------------------------------|
G|-9----8/9-8/9-8/9-8/9-8/9-8/9----7-7-7-7-7-7-7-7-7-7-7-7-7-7-7-7-9----|
D|-7----6/7-6/7-6/7-6/7-6/7-6/7----5-5-5-5-5-5-5-5-5-5-5-5-5-5-5-5-7----|
A|----------------------------------------------------------------------|
E|----------------------------------------------------------------------|

e|-----------------------------------------------------------------------|
B|-----------------------------------------------------------------------|
G|-8/9-8/9-8/9-8/9-8/9-8/9----8/9-8/9-8/9-8/9-8/9-8/9--------------------|
D|-6/7-6/7-6/7-6/7-6/7-6/7----6/7-6/7-6/7-6/7-6/7-6/7--------------------|
A|-----------------------------------------------------------------------|
E|-----------------------------------------------------------------------|

e|---------------------------------------------|
B|---------------------------------------------|
G|-7-7-7-7-7-7-7-7-7-7-7-7-7-7-7-7-7--7--7--7--|
D|-5-5-5-5-5-5-5-5-5-5-5-5-5-5-5-5-5--5--5--5--|
A|---------------------------------------------|
E|---------------------------------------------|

|  P\  pickscr*pe
| [x]  palm mute
|  /   slide up
|  \   slide down
|  h   hammer-on
|  p   pull-off
|  ~   vibrato
|  +   harmonic
|  x   Mute note
===============================================================================
            
Submit corrections

↑ Back to top | Tablatures and chords for acoustic guitar and electric guitar, ukulele, drums are parodies/interpretations of the original songs. You may use it for private study, scholarship, research or language learning purposes only