Home » A » After The Burial »

After The Burial - Deluge Tabs

Artists:  A B C D E F G H I J K L M N O P Q R S T U V W X Y Z # 

Deluge Tabs

(ver. 1) Click to play this song!
After The Burial
Solo at 2:40

Eb|------------------------------------------------PH--------------------|
Bb|-------17~~~-------17----------------TH---------16~~~~~---------------|
Gb|--/16----------16-----16--15b16r15---15~~~~~--------------------------|
Db|----------------------------------------------------------------------|
Ab|----------------------------------------------------------------------|
Eb|----------------------------------------------------------------------|

Eb|--18--15--t18p15-t18p15-t18p15-t18p15--14\----------------------------|
Bb|----------------------------------------------------------------------|
Gb|----------------------------------------------------------------------|
Db|----------------------------------------------------------------------|
Ab|----------------------------------------------------------------------|
Eb|----------------------------------------------------------------------|

Eb|--/12--(12)\10p8p7h8h10p7---------------------------------------------|
Bb|--------------------------10p8p7h8p7----------------------------------|
Gb|-------------------------------------9\7-4h5h7p5p4h5p4----------------|
Db|--------------------------------------------------------7p5p4---------|
Ab|---------------------------------------------------------------7~~~---|
Eb|----------------------------------------------------------------------|

Eb|----------------------------------------------------------------------|
Bb|----------------------------------------------------------------------|
Gb|-----9/11--12--11--9--7h9p7------(7)\4----(4)\------------------------|
Db|----------------------------------------------------------------------|
Ab|--7-------------------------------------------------------------------|
Eb|--.-------------------------------------------------------------------|

Eb|-------------------------------------------------PH-------------------|
Bb|-------17------17/19--19\15----15h17--12h15------12\------------------|
Gb|--/16------16--------------------------------14-----------------------|
Db|----------------------------------------------------------------------|
|----------------------------------------------------------------------|
Eb|----------------------------------------------------------------------|

Eb|----------------------------------------------------------------------|
Bb|------8-----8/12---10\8--7h8p7----------------------------------------|
Gb|--/9--.--9----------------------9--7----------------------------------|
Db|---------.----------------------------9--7----------------------------|
Ab|--------------------------------------------10-9-7b9r7~~~-------------|
Eb|---------------------------------------------.-.----------------------|

Eb|---------------------------------------------------------14-15-17-----|
Bb|------------------------------------------------13-15-17--------------|
Gb|------------------------------------11-12-14-16-----------------------|
Db|-------------------------9-10-12-14-----------------------------------|
Ab|------9-----7--7-9-10-12----------------------------------------------|
Eb|--7-8---10------------------------------------------------------------|

Eb|-/19p15---------------------15h19--15p14h15\--10h12p10--8h10p8p7h8p7--|
Bb|-------17----------------17-------------------------------------------|
Gb|----------16----------16----------------------------------------------|
Db|-------------17----17-------------------------------------------------|
Ab|----------------19----------------------------------------------------|
Eb|----------------------------------------------------------------------|

Eb|----------------------------------------------------------------------|
Bb|--10p8--7b8r7~~~------------------------------------------------------|
Gb|----------------------------------------------------------------------|
Db|----------------------------------------------------------------------|
Ab|----------------------------------------------------------------------|
Eb|----------------------------------------------------------------------|

Eb|--------------14-14-------------------------19-19-17-17-14-14---------|
Bb|--------12-12-------13-13-15-15-13-13-15-15-------------------15-15---|
Gb|--12-12---------------------------------------------------------------|
Db|----------------------------------------------------------------------|
Ab|----------------------------------------------------------------------|
Eb|----------------------------------------------------------------------|

Eb|--------------14-14-15-15-19-19~~~~~~---------------------------------|
Bb|--13-13-15-15---------------------------------------------------------|
Gb|----------------------------------------------------------------------|
Db|----------------------------------------------------------------------|
Ab|----------------------------------------------------------------------|
Eb|----------------------------------------------------------------------|
            
Submit corrections

↑ Back to top | Tablatures and chords for acoustic guitar and electric guitar, ukulele, drums are parodies/interpretations of the original songs. You may use it for private study, scholarship, research or language learning purposes only