» » »

Aertze - Schrei Nach Liebe Tabs

Artists:  A B C D E F G H I J K L M N O P Q R S T U V W X Y Z # 

Schrei Nach Liebe Tabs

(ver. 1) Click to play this song!
Aertze
 Rating:
4/5 (4 votes)

 Schrei Nach Liebe lessons Tabs too difficult? Try these video lessons and learn fast
 
                PROPS GO TO: Luke

Schrei nach Liebe

Intro:

(fast scratching on d-Moll in 10. ... then:)

   d                                        B                 C
E :--------------------|-------------------|---------------------|
B :--------------------|-------------------|---------------------|
G :-----------9-10---9-|-------------------|-----------9-10---12-|
D :12---12-12----------|--10---12-------10-|12---12-12-----------|
A :--------------------|-------------------|---------------------|
E :--------------------|-------------------|---------------------|

E :------------------|
B :------------------|
G :--10---9----------|
D :-----------10-----|
A :------------------|
E :------------------|


d
du bist wirklich saudumm
B     C
darum gehts dir gut
d
hass ist deine attitüde
B       C
ständig kocht dein blut

Fill-In:
C (VIII.)    d
e-------------
h-------------
g-9-10-9------
d--------10-12
A-------------
E-------------

d
alles muss man dir erklären
B                C
weil du wirklich gar nichts weisst
d
höchstwahrscheinlich nicht einmal
B       C
was attitüde heisst

B       C                d                   d  C   B
deine gewalt ist nur ein stummer schrei nach li----ebe
B             C              G                 A
deine springerstiefel sehnen sich nach zärtlichkeit
B       C                   d     d C B
du hast nie gelernt dich zu artikulieren
                        A
und deine eltern hatten niemals für dich zeit
        B  
oh oh oh arschloch

(Intro-Solo)


(accord like up)
warum hast du angst vorm streicheln
was soll all der terz
unterm lorbeerkranz mit eicheln
weiß ich, schlägt ein herz
und romantik ist für sich
nicht nur graue theorie
zwischen störkraft und den onkelz
steh ne kuschelrock LP

deine gewalt ist nur ein stummer schrei nach liebe (silent cry for love)
deine springerstiefel sehnen sich nach zärtlichkeit
du hast nie gelernt dich zu artikulieren
und deine eltern hatten niemals für dich zeit
oh oh oh arschloch

Solo:

   d                                        B
E :10---------------|-----10-12-13-12-10-8-|6-----------6---|
B :-----------------|--10------------------|----------8---8-|
G :-----------------|----------------------|----------------|
D :-----------------|----------------------|----------------|
A :-----------------|----------------------|----------------|
E :-----------------|----------------------|----------------|

         C           d
E :-----------------|-----8------------|----10---12--13---12|
B :------10---8-6-8-|10-----10-8-------|--------------------|
G :-----------------|------------------|--------------------|
D :-----------------|------------------|--------------------|
A :-----------------|------------------|--------------------|
E :-----------------|------------------|--------------------|

      B                                C
E :---13--15---13---15-|-17---15---17--20---|
B :--------------------|--------------------|
G :--------------------|--------------------|
D :--------------------|--------------------|
A :--------------------|--------------------|
E :--------------------|--------------------|

d    ....(accord like up...)
weil du probleme hast die keinen interessieren
weil du angst vor schmusen hast
bist du ein faschist
du musst deinen selbsthass nicht auf andere projezieren
damit keiner merkt was für ein lieber kerl du bist
deine gewalt ist nur ein stummer schrei nach liebe
deine springerstiefel sehnen sich nach zärtlichkeit
du hast nie gelernt dich artizukulieren
und deine freundin die hat niemals für dich zeit
         B 
oh oh oh arschloch
C
arschloch
d
arschloch 
(Nun improvisiertes Solo, then Refrain on acoustic-guitar whithin whistling )
            
Submit corrections


        Schrei Nach Liebe lessons Hard to play? Try these video lessons and learn fast Schrei Nach Liebe lessons
        
↑ Back to top | Tablatures and chords for acoustic guitar and electric guitar, ukulele, drums are parodies/interpretations of the original songs. You may use it for private study, scholarship, research or language learning purposes only