» » »

Adelitas Way - Alive Tabs

Artists:  A B C D E F G H I J K L M N O P Q R S T U V W X Y Z # 

Alive Tabs

(ver. 2) Click to play this song!
Adelitas Way
 Rating:
4/5 (4 votes)


 Alive lessons Tabs too difficult? Try these video lessons and learn fast
 
                Adelitas Way
Alive (Acoustic)
Puronoys:

Tuning: C# Ab C# G B E


Intro:
E  -----|-----|
B  -----|-----|
G  -----|-----|
C# -77..|-----|
Ab -55..|-----|
C# -----|-----|

Verse:
E  -------------------------------------|
B  -------------------------------------|
G  -------------------------------------|
C# --444--2222--555--7777---------------|
Ab --222--0000--555--5555---------------|
C# -------------555--0000---------------|


Pre Chorus:
E  -------------------------------------|
B  -------------------------------------|
G  -------------------------------------|
C# ---0--22/55----------7-7-777..-------|
Ab ---0--22/55--(2x)----5-5-555...------|
C# ---0--22/55----------5-5-555...------|


Chorus:
E  ------------------------|-----------|
B  ------------------------|-----------|
G  --6--1-----6------------|-----------|
C# --7--2--7--7--9--7--7---|---7-------|
Ab --5--0--5--4--9--7--5---|---7-------|
C# --0--x--5--4--9--7--5---|---7-------|
                              ... best thing in my life

Solo:
E  -----------------------|
B  -----------------------|
G  ------6----------------|
C# ---5--7--9--7----------|
Ab ---5--5--9--7----------|
C# ---5--0--9--7----------|


Bridge:
E  ------------------------|
B  ------------------------|
G  ------------------------|
C# --7--7---555-777..------|
Ab --5--4---555-555..------|
C# --x--x---555-555..------|






Verse:

What if I told you that I think you're perfect?
Beautiful sky in your eyes, it's so worth it
I know
You make me feel alive

What if I told you that I'm in forever?
Nothing to hide, yeah, I'll go wherever
You would go
You make me feel alive

And I'll be hanging on
Every word you say to me
Hanging on a feeling that I get
'Cause you make me


Pre Chorus:

Laugh a little louder
Love a little harder


Chorus:

And I feel alive when I'm with you
Every time it's something new
Never knew what love could feel like
Until I walked away the first time

And I feel alive when I'm with you
Deep inside, it's something true
You're the only reason I fight
You're the best thing in my life




Verse:

What if I told you that I'd never hurt you?
Always be there for you to hold on to
I know
You make me feel alive

And every single second's
A lifetime memory
I'll be holding on each moment
'Cause you make me


Pre Chorus:

Laugh a little louder
Love a little harder

Chorus:
Solo:

Bridge:

And I feel alive when I'm with you
When I'm with you

Chorus:2x
            
Submit corrections



        Alive lessons Hard to play? Try these video lessons and learn fast Alive lessons
        
↑ Back to top | Tablatures and chords for acoustic guitar and electric guitar, ukulele, drums are parodies/interpretations of the original songs. You may use it for private study, scholarship, research or language learning purposes only