» » »

A Day To Remember - Homesick Tabs

Artists:  A B C D E F G H I J K L M N O P Q R S T U V W X Y Z # 

Homesick Tabs

(ver. 3) Click to play this song!
A Day To Remember
 Rating:
4/5 (4 votes)


 Homesick lessons Tabs too difficult? Try these video lessons and learn fast
 
                Hey guys, Here's the acoustic tab for A Day To Remember - Homesick, KROQ version. 
notice this is in drop B tuning; B F# B E G# C#. 

This rhythm isn't exactly correct, so listen to the original KROQ song or my own cover for this.

(also, this is my very first tab, thanks for watching and any comment is welcome!)


Everything around me seems...
|----------------------------------------------------------------------------|
|----------------------------------------------------------------------------|
|--9-----7------5-------5-------7------8------9-----x----9-----x-------------|
|---------------3---------------5------6-------------------------------------|
|--7-----5------3-------3-------5------6------7-----x----7-----x-------------|
|---------------3---------------5------6-------------------------------------|
  x13   x6     x6     x13       x6     x8     3x    3x   3x   3x

continue to live a life...
|----------------------------------------------------------------------------|
|----------------------------------------------------------------------------|
|----12-----5------12-------5--------12------13------------------------------|
|----------------------------------------------------------------------------|
|----10-----3------10-------3--------10------11------------------------------|
|----------------------------------------------------------------------------|
    x8     x8      x8      x8        x8      x8      

Right here, right now
|----------------------------------------------------------------------------|
|----------------------------------------------------------------------------|
|-----5------4-----5---------12---9---10---7---5------4----------------------|
|----------------------------------------------------------------------------|
|-----3------2-----3---------10---7---8----5---3------2----------------------|
|----------------------------------------------------------------------------|
     x6      x8    x6                         x6      x8

(the beginning of..) the end
|----------------------------------------------------------------------------|
|----------------------------------------------------------------------------|
|----12---10--9------9-9h10p9------------------------------------------------|
|------------------------------10--------------------------------------------|
|----------------------------------------------------------------------------|
|----------------------------------------------------------------------------|

And I won't sing one...
|----------------------------------------------------------------------------|
|----------------------------------------------------------------------------|
|-----5------4-----5---------12---9---10---7-----5-------7-------------------|
|------------------------------------------------3-------5-------------------|
|-----3------2-----3---------10---7---8----5-----3-------5-------------------|
|------------------------------------------------3-------5-------------------|
     x6      x8    x6                                        

Hey mom, I wrote...                                                         go
|--REPEAT 2X-------------------------------------------|              |------------|
|------------------------------------------------------|              |------------|
|-----5----5----5------5---5------5---7----5-----------|              |-----8------|
|-----2----0----3------0---2---------------------------|              |------------|
|-----3----3----3------3---3------3---5----3-----------|              |-----6------|
|------------------------------------------------------|              |------------|
      x3 x4/6   x3     x2  x2    x5  x2   x8                        Play at the 2nd End:

Everything about me seemed...
|------------------------------------------------------------------------------|
|------------------------------------------------------------------------------|
|--9-----7------5-------5-------7------8------9-----x----9-----x---------------|
|---------------3---------------5------6---------------------------------------|
|--7-----5------3-------3-------5------6------7-----x----7-----x---------------|
|---------------3---------------5------6---------------------------------------|
   x13   x6     x8     x13     x6      x8     3x    3x   3x    3x

Never felt so alone...
|------------------------------------------------------------------------------|
|------------------------------------------------------------------------------|
|----12-----5------12-------5--------12------13--------------------------------|
|------------------------------------------------------------------------------|
|----10-----3------10-------3--------10-------11-------------------------------|
|------------------------------------------------------------------------------|
     x8    x8      x8       x8       x8       x8      


Right here, right now...
|-------------------------------------------------------------------------------|
|-------------------------------------------------------------------------------|
|-----5------4-----5---------12---9---10---7---5------4-------------------------|
|-------------------------------------------------------------------------------|
|-----3------2-----3---------10---7---8----5---3------2-------------------------|
|-------------------------------------------------------------------------------|
      x6    x8    x6                           x6     x8
(the biginning of...) The end
|-------------------------------------------------------------------------------|
|-------------------------------------------------------------------------------|
|----12---10--9------9-9h10p9---------------------------------------------------|
|-----------------------------10------------------------------------------------|
|-------------------------------------------------------------------------------|
|-------------------------------------------------------------------------------|

And I won't sing one single thing...
|-------------------------------------------------------------------------------|
|-------------------------------------------------------------------------------|
|-----5------4-----5---------12---9---10---7-----5----7-------------------------|
|------------------------------------------------3----5-------------------------|
|-----3------2-----3---------10---7---8----5-----3----5-------------------------|
|------------------------------------------------3----5-------------------------|
      x6    x8    x6         

Hey mom...                                                                               
|--REPEAT 2X-------------------------------------------|                
|------------------------------------------------------|                
|-----5----5----5------5---5------5---7----5-----------|                
|-----2----0----3------0---2---------------------------|                 
|-----3----3----3------3---3------3---5----3-----------|                 
|------------------------------------------------------|                
      x3  x4/6  x3     x2  x2    x5  x2   x8                     

so why's this...                               
|-- REPEAT 2x ---------------------------------------------------------------------------|-----|-----|
|----------------------------------------------------------------------------------------|-----|-----|
|-----12--12-------12--12--12-------12--12--12-----12--12--12--9--10---9--7--9--5----7---|--5--|--5--|
|----------------------------------------------------------------------------------------|-----|--3--|
|-----10--10-------10--10--10-------10--10--10-----10--10--10--7---8---7--5--7--3----5---|--3--|--3--|
|----------------------------------------------------------------------------------------|-----|--3--|
                                                                                4x    2x    x8    6x
                                                                                         |end 1|end 2|


I'm holding on...                                we're moving forward...
|-----0--------------0-------------0-----------------------------------|
|--------1--------------1-------------1--------------------------------|
|-----------0-------------0--------------2------------5------4---------|
|--3---------------3----------------------------------5------5---------|
|-------------------------------0---------------------5------5---------|
|----------------------------------------------------------------------|
                                                      8x     5x

Guitar "solo" , 2nd time: I'm holding on...                                         (for)ward
|-- REPEAT 2x ----------------------------------------------------|    |----------------------------|
|-----------------------------------------------------------------|    |----------------------------|
|-------5----------12--10--4--5-----------5---------12--10--9-----|    |--------5~------------------|
|---3----------3----------------------7---------5-----------------|    |----------------------------|
|---3---3------3---10--8---2--3-------7---3-----5---10--8---7-----|    |--------3~------------------|
|---3----------3----------------------7---------5-----------------|    |----------------------------|
                                                                  Play after 2nd time (let it ring)


|----------------|
|----------------|
|---5/12----12---|
|----------------|
|---3/10----10---|
|----------------|
           x18


Hey mom, I wrote...
|--REPEAT 2X--------------------------------------|                     
|-------------------------------------------------|                     
|-----5----5----5------5---5------5---7----5------|                     
|-----2----0----3------0---2----------------------|                     
|-----3----3----3------3---3------3---5----3------|                     
|-------------------------------------------------|                     
     x3  x4/6   x3     x2  x2     x5  x2   x8                     


Nervous (You make me so, you make me so...)
|-- REPEAT 2x ---------------------------------------------------------------------------|-----|-----|
|----------------------------------------------------------------------------------------|-----|-----|
|-----12--12-------12--12--12-------12--12--12-----12--12--12--9--10---9--7--9--5----7---|--5--|--5--|
|----------------------------------------------------------------------------------------|-----|--3--|
|-----10--10-------10--10--10-------10--10--10-----10--10--10--7---8---7--5--7--3----5---|--3--|--3--|
|----------------------------------------------------------------------------------------|-----|--3--|
                                                                                4x   2x     x8
                                                                                         |end 1|end 2|
            
Submit corrections



        Homesick lessons Hard to play? Try these video lessons and learn fast Homesick lessons
        
↑ Back to top | Tablatures and chords for acoustic guitar and electric guitar, ukulele, drums are parodies/interpretations of the original songs. You may use it for private study, scholarship, research or language learning purposes only