» » »

Adam Sandler - Chanukah Song Tabs

Artists:  A B C D E F G H I J K L M N O P Q R S T U V W X Y Z # 

Chanukah Song Tabs

(ver. 1) Click to play this song!
Adam Sandler
 Rating:
4.8/5 (16 votes)


 Chanukah Song lessons Tabs too difficult? Try these video lessons and learn fast
 
                Here is a great tab for you guys.  Most tabs for this song has the chords but not the 
so I have for you guys!! Please rate!

 A chord            E chord        D chord
e---0-----         e---0-------    e----2------|
B---2------        B---0-------    B----3------|
G---2------        G---1-------    G----2------|
D---2------        D---2-------    D----0------|
C---0------        C---2-------    C----0------|
E---0-----         E---0-------    E----0------|

--------------------Normal Strum For First Part---------------------

(A) Put on your (E) yalmulka, (D) here comes Hanukkah.
It's (A) so much (E) fun-akkah to (D) celebrate (E) hanukkah.

                ----Strum Second & Third Part Lightly----
(A)Hanukkah (E)is the (D) Festival of (E) Lights,
(A) Instead of one day of (E) presents, we have eight (D) crazy (E) nights!!

(A) When you feel like the only (E) kid in town with (D)out a X-mas (E)tree,
(A) Here¹s a list of (E)people who are Jewish, (D) just like you and (E)me:

                  -------Picking------
   A              E                D               E
e---------------------------------------------------------------------------|
G-------------2-----------------0--------------3---------------0------------|
B---------------------------------------------------------------------------|
D--------2-----------------2--------------0----------------2----------------|
A---0---------------2---------------0----------------2----------------------|
E---------------------------------------------------------------------------|
     David Lee         Roth           lights the mo-     -norrah

   A              E                D               E
e---------------------------------------------------------------------------|
G-------------2-----------------0--------------3---------------0------------|
B---------------------------------------------------------------------------|
D--------2-----------------2--------------0----------------2----------------|
A---0---------------2---------------0----------------2----------------------|
E---------------------------------------------------------------------------|
    So does James   C., Kirk D. and the late Dinah     Shorah!!

    A              E                D               E
e---------------------------------------------------------------------------|
G-------------2-----------------0--------------3---------------0------------|
B---------------------------------------------------------------------------|
D--------2-----------------2--------------0----------------2----------------|
A---0---------------2---------------0----------------2----------------------|
E---------------------------------------------------------------------------|
   Guess who eats to gether at the   Karniky          Deli
   A              E                D               E
e---------------------------------------------------------------------------|
G-------------2-----------------0--------------3---------------0------------|
B---------------------------------------------------------------------------|
D--------2-----------------2--------------0----------------2----------------|
A---0---------------2---------------0----------------2----------------------|
E---------------------------------------------------------------------------|
   Bowser from    Sha-na-na          and Arthur Funzeralli
    A              E                D               E
e---------------------------------------------------------------------------|
G-------------2-----------------0--------------3---------------0------------|
B---------------------------------------------------------------------------|
D--------2-----------------2--------------0----------------2----------------|
A---0---------------2---------------0----------------2----------------------|
E---------------------------------------------------------------------------|
    Paul Newmans half  Jewish,      Goldie Hawns's half too

    A              E                D                E
e----------------------------------------------------0-----------------------|
G-------------2-----------------0--------------3-----0-----------------------|
B----------------------------------------------------1-----------------------|
D--------2-----------------2--------------0----------2-----------------------|
A---0---------------2---------------0----------------2-----------------------|
E----------------------------------------------------0-----------------------|
      Put them together            what a fine looking Jew

                   ----Strum----
(D) You don¹t need ³Deck the Halls² or ³Jingle Bell Rock²
(E) Cause you can spin the dreidl with Captain Kirk and Mr. Spock--both Jewish!  (Esus)

(A) Put on your (E) yalmulka, it¹s (D) time for (E) Hanukkah,
The (A) owner of the Seattle Super(E)sonic-ahs (D) celebrates (E) Hanukkah.

  A              E
e-----------------------------------|
G-------------2-----------------0---|
B-----------------------------------|     NOT A JEW!!
D--------2-----------------2--------|
A---0---------------2---------------|
E-----------------------------------|
    O.J.          Simpson


  A              E                D               E                    Bm
e-------------------------------------------------------------------|
G-------------2-----------------0--------------3---------------0----|
B-------------------------------------------------------------------|
D--------2-----------------2--------------0----------------2--------|
A---0---------------2---------------0----------------2--------------|
E-------------------------------------------------------------------|
But guess who is  all Hall of Famer...Rod      Carew.     He converted

                  -_-_-_-Rest of Song is Strumming-_-_-_-

                     (These Next 2 Parts are A Light Strum)

(A) We got Ann (E) Landers and her (D) sister Dear, (E) Abby,
(A) Harrison Ford¹s a (E) quarter Jewish--(D) not too (E) shabby!

(A) Some people (E) think that (D) Ebeneezer (E) Scrooge is,
Well, he¹s (A) not, but (E) guess who is: (D) All three (E) stooges.   (Esus)  (E)

             -_-_-_-More louder strum-_-_-_-

(D) So many Jews are in show biz
(E) Tom Cruise isn¹t, but I heard his agent is.  (Esus)

(A) Tell your friend Ver(E)onica, it¹s (D) time you celebrate (E) Hanukkah
I (A) hope I get a har(E)monica, on this (D) lovely, lovely (E) Hanukkah.

So (A) drink your gin-and-(E)tonic-ah, and (D)smoke your mara(E)juanic-ah,
If you (A) really, really (E)wanna-kah, Have a (D) happy, happy, (E) happy, happy (A) 
happy, happy, (E) happy, happy (A)Hanukkah.
            
Submit corrections



        Chanukah Song lessons Hard to play? Try these video lessons and learn fast Chanukah Song lessons
        
↑ Back to top | Tablatures and chords for acoustic guitar and electric guitar, ukulele, drums are parodies/interpretations of the original songs. You may use it for private study, scholarship, research or language learning purposes only