» » »

Adam Sandler - Bi Oyle Bi Boyle Tabs

Artists:  A B C D E F G H I J K L M N O P Q R S T U V W X Y Z # 

Bi Oyle Bi Boyle Tabs

(ver. 1) Click to play this song!
Adam Sandler
 Rating:
4.4/5 (21 vote)

 Bi Oyle Bi Boyle  lessons Tabs too difficult? Try these video lessons and learn fast
 
                Tuning:

e|----------------------------------------------------------------3h4-3-2-1-0---|
B|---1---1--3--3h4p3p1--3--------------------1---1--3--3h4p3p1--3---------------|
G|-------------------------1---1--3--3h4p3p0------------------------------------|
D|------------------------------------------------------------------------------|
A|------------------------------------------------------------------------------|
E|------------------------------------------------------------------------------|

e---------------------------------------8-----8----8h10p8------------------------|
B---1---1--3--3h4p3p1--3---4---7---8------8------------------12-------13---------|
G-------------------------------------------------------------------------------|
D|------------------------------------------------------------------------------|
A|------------------------------------------------------------------------------|
E|------------------------------------------------------------------------------|
            
Submit corrections


        Bi Oyle Bi Boyle  lessons Hard to play? Try these video lessons and learn fast Bi Oyle Bi Boyle  lessons
        
↑ Back to top | Tablatures and chords for acoustic guitar and electric guitar, ukulele, drums are parodies/interpretations of the original songs. You may use it for private study, scholarship, research or language learning purposes only