Home » A » Aaron Shust »

Aaron Shust - My Savior My God Tabs

Artists:  A B C D E F G H I J K L M N O P Q R S T U V W X Y Z # 

My Savior My God Tabs

(ver. 1) Click to play this song!
Aaron Shust
 Rating:
4.4/5 (7 votes)
                apo: 7th fret 4/4

Intro:
(1)& 2 & 3 e & a 4 e & a 1 & - & a 3 & - & a 1
---------------------------------|---------------------|-----|
---0--0--0--0----0--0--0----0--0-|---0---0-0---0---0-0-|-----|
---4--4--4--3\2--2--2--2P0--0--0-|---0---0-0---0---0-0-|-----|
---0--0--0--0----0--0--0----0--0-|---0---0-0---0---0-0-|-----|
---5--5--5--5\3--3--3--3\2--2--2-|-2---------2---------|-2---|
---------------------------------|-3---------3---------|-3---|

& 2 (simile)-
---------------------------------|--------------------|------|
---0--0--0--0----0--0--0----0--0-|---0--0-0----0--0-0-|------|
---4--4--4--3\2--2--2--2P0--0--0-|---0--0-0----0--0-0-|------|
---0--0--0--0----0--0--0----0--0-|---0--0-0----0--0-0-|------|
---5--5--5--5\3--3--3--3\2--2--2-|-2---------2--------|-2----|
---------------------------------|-0---------0--------|-0----|

---------------------------------|--------------------|------|
---------------------------------|---3--3-3----3--3-3-|------|
---------------------------------|---2--2-2----2--2-2-|------|
---0--0--0--0----0--0--0---------|---0--0-0----0--0-0-|------|
---3--3--3--3\2--2--2--2P0-0--0-0|-0---------0--------|-0----|
---------------------------------|--------------------|------|

---------------------------------|---------------------|-----|
---0--0--0--0----0--0--0----0--0-|---0---0-0---0---0-0-|-----|
---4--4--4--3\2--2--2--2P0--0--0-|---0---0-0---0---0-0-|-----|
---0--0--0--0----0--0--0----0--0-|---0---0-0---0---0-0-|-----|
---5--5--5--5\3--3--3--3\2--2--2-|-2---------2---------|-2---|
---------------------------------|-3---------3---------|-3---|

Verse:
(G)                                         G
                I am not skilled to under---stand
                                            Em
         What God has willed, what God has  planned
                                            D
                   I only know at his right hand
                                            G
                       Stands One who is my Saviour

                                            G
                 I take Him at His word and deed
                                            Em
             Christ died to save me this I read
                                            D
                   And in my heart I find a need
                                            G
                           For Him to be my Saviour

Bridge:
                                            C
           That He would leave His place on high
                                            G
                 And come for sinful man to die
                                            D
          You count it strange, so once did I
                                            G
                           Before I knew my Saviour

Chorus:
                Em                          C
     My Saviour loves,           my Saviour lives
                G                           D
   My Saviour's always            there for me
                Em                          C
      My God He was,              my God He is
                G                           D
    My God He's always                gonna be

Verse:
                                            G
                 Yes, living, dying; let me bring
                                            Em
           My strength, my solace from this spring
                                            D
                 That He who lives to be my King
                                            G
                         Once died to be my Saviour

                                            C
           That He would leave his place on high
                                            G
                 And come for sinful man to die
                                            D
          You count it strange, so once did I
                                            G
                           Before I knew my Saviour            
Submit corrections

↑ Back to top | Tablatures and chords for acoustic guitar and electric guitar, ukulele, drums are parodies/interpretations of the original songs. You may use it for private study, scholarship, research or language learning purposes only