» » »

Aaliyah - More Than A Woman Tabs

Artists:  A B C D E F G H I J K L M N O P Q R S T U V W X Y Z # 

More Than A Woman Tabs

(ver. 1) Click to play this song!
Aaliyah
 Rating:
4.4/5 (11 votes)

 More Than A Woman lessons Tabs too difficult? Try these video lessons and learn fast
 
                [Lead/Chords]

[Verse]
     Eb           Eb/G              B             E       E      
E|-----x-7--6------------6------|------------------------------|
B|-------------9-8----9---------|----------------7s-9----------|
G|--8------------8----------8-6-|--8----8s-9-8-6---------9-9-9-|
D|--8------------5--------------|------------------------9-9-9-|
A|--6---------------------------|------------------------7-7-7-|
E|------------------------------|--7-------------0-------------|

    Eb           Eb/G              B             E      E       
E|-----x-7--6------------6------|-----------------------------|
B|-------------9-8----9---------|---------------------------9-|
G|--8------------8----------8-6-|------------------6----9-9-9-|
D|--8------------5--------------|--9----9s-6-9-6-9------9-9-9-|
A|--6---------------------------|-----------------------7-7-7-|
E|------------------------------|--7-------------0------------|

[Chorus]
     Eb           Eb/G              B                E       E      
E|--6--x-7--6----6-------6------|--9s-11--------------------------|
B|-------------9-8----9---------|-------------------7s-9--------9-|
G|--8------------8----------8-6-|--8-------8s-9-8-6---------9-9-9-|
D|--8------------5--------------|---------------------------9-9-9-|
A|--6---------------------------|---------------------------7-7-7-|
E|------------------------------|--7----------------0-------------|

    Eb           Eb/G              B                E       E        
E|--6--x-7--6----6-------6------|--9s-11--------------------------|
B|-------------9-8----9---------|-------------------7s-9--------9-|
G|--8------------8----------8-6-|----------------------6----9-9-9-|
D|--8------------5--------------|--9-------9s-6-9-6-9-------9-9-9-|
A|--6---------------------------|---------------------------7-7-7-|
E|------------------------------|--7----------------0-------------|****            
Submit corrections


        More Than A Woman lessons Hard to play? Try these video lessons and learn fast More Than A Woman lessons
        
↑ Back to top | Tablatures and chords for acoustic guitar and electric guitar, ukulele, drums are parodies/interpretations of the original songs. You may use it for private study, scholarship, research or language learning purposes only