Home » # »

/0-9/883-tabs-62.html

»

883 - Come Mai Tabs

Artists:  A B C D E F G H I J K L M N O P Q R S T U V W X Y Z # 

Come Mai Tabs

(ver. 1) Click to play this song!
883
Intro part, normally played by piano

E||------20--20-----------20--20-------|
B||--18------------18-17---------------|
G||---------------------------------17-|
D||------------------------------------|
A||------------------------------------|
E||------------------------------------|


                                                                              
E||------20----20-17----17-----15--17--|--18--17--17--15-17-15--13-----------13-|
B||------------------20----------------|---------------------------13-----13----|
G||--15--------------------------------|----------------------------------------|
D||------------------------------------|----------------------------------------|
A||------------------------------------|----------------------------------------|
E||------------------------------------|----------------------------------------|


                                     
E||--17--15--15---13--13---13---------||
B||-----------------------------------||
G||-----------------------------------||
D||-----------------------------------||
A||-----------------------------------||
E||-----------------------------------||            
Submit corrections

↑ Back to top | Tablatures and chords for acoustic guitar and electric guitar, ukulele, drums are parodies/interpretations of the original songs. You may use it for private study, scholarship, research or language learning purposes only