Home » # »

/0-9/883-tabs-62.html

»

883 - Ci Sono Anchio Tabs

Artists:  A B C D E F G H I J K L M N O P Q R S T U V W X Y Z # 

Ci Sono Anchio Tabs

(ver. 1) Click to play this song!
883
Capo 2° tasto

=======================================================================

Accordi:
     G     Csus2  A7sus4     D      Em7      
e|---3---|---3---|---3---|---2---|---3---|
B|---3---|---3---|---3---|---3---|---3---|
G|---0---|---0---|---2---|---2---|---0---|
D|---0---|---2---|---2---|---0---|---2---|
A|---2---|---3---|---0---|-------|---2---|
E|---3---|-------|-------|-------|---0---|

=======================================================================

Intro: 
 
    G            Csus2       G           Csus2
e|---------------------------------------------------------|
B|--------3---3-------3---3--------3---3-------3---3-------|
G|------0---0-------0---0--------0---0-------0---0---------| x2 
D|----0-----------2------------0-----------2---------------|     
A|--------------3------------------------3-----------------|
E|--3------------------------3-----------------------------|

Verso 1: 
      G            Csus2      
e|-----------------------------|
B|--------3-----------3--------|
G|------0---0-------0---0------|
D|----0-------0---2-------0----|x3
A|--------------3--------------|
E|--3--------------------------|

Io di risposte non ne ho 
mai avute mai ne avro 
di domande ne ho


     A7sus4      Csus2
e|-----------------------------|
B|--------3-----------3--------|
G|------2---2-------0---0------|
D|----2-------2---2-------0----|
A|--0-----------3--------------|
E|-----------------------------|

quante ne vuoi 
 
      G            Csus2      
e|-----------------------------|
B|--------3-----------3--------|
G|------0---0-------0---0------|
D|----0-------0---2-------0----|x3
A|--------------3--------------|
E|--3--------------------------|

e tu neanche tu mi fermerai 
neanche tu ci riuscirai 
io non sono quel

     Em7     D    Csus2              Ritmo Fig. I
e|-----------------------------|------------------------------|
B|------3------3---(3)---------|-non-c-e-nella-parte-acustica-|
G|----0------2-----(0)---------|-ma-riempie-il--vuoto---------|
D|--2------0-------(2)---------|------------------------------|
A|------------------3----------|----(3)-(2)-------------------|
E|-----------------------------|------------(3)---------------|

   tipo di uomo e non lo saro mai 

=======================================================================

Interludio:

      G            Csus2       G           Csus2
e|---------------------------------------------------------|
B|--------3---3-------3---3--------3---3-------3---3-------|
G|------0---0-------0---0--------0---0-------0---0---------|
D|----0-----------2------------0-----------2---------------|
A|--------------3------------------------3-----------------|
E|--3------------------------3-----------------------------|

=======================================================================

Verso 2:

      G            Csus2      
e|-----------------------------|
B|--------3-----------3--------|
G|------0---0-------0---0------|
D|----0-------0---2-------0----|x3
A|--------------3--------------|
E|--3--------------------------|

Non so se la rotta e giusta o se 
mi sono perduto ed e 
troppo tardi 
per

     A7sus4      Csus2
e|-----------------------------|
B|--------3-----------3--------|
G|------2---2-------0---0------|
D|----2-------2---2-------0----|
A|--0-----------3--------------|
E|-----------------------------|
 
tornare indietro

      G            Csus2      
e|-----------------------------|
B|--------3-----------3--------|
G|------0---0-------0---0------|
D|----0-------0---2-------0----|x3
A|--------------3--------------|
E|--3--------------------------|

cosi meglio che io vada via 
non pensarci, e colpa mia 
questo mondo non

   
   Em7     D    Csus2       Ritmo Fig. I
e|---------------------|------------------------------|
B|--3------3------3----|------------------------------|
G|--0------2------0----|------------------------------|
D|--2------0------2----|------------------------------|
A|--2-------------3----|----(3)--(2)-----(3)--(2)-----|
E|---------------------|------------(3)----------(3)--|

   sa------ra    mio

=======================================================================

Chorus:

     G         Csus2        G
 Non so se e soltanto fantasia 
        Csus2        G
 o se e solo una follia 
        Csus2      A7sus4   Csus2
 quella stella lontana laggiu 
    G        Csus2            G
 Pero io la seguo e anche se so 
         Csus2        G
 che non la raggiungero 
       Csus2
 potro dire 
    Em7  D  Csus2   Ritmo Fig. I
 ci so---no anch'io 

=======================================================================

Verso 2:

Non e stato facile perche 
nessun' altro a parte me 
ha creduto 
pero ora so 
che tu 
vedi quel che vedo io 
il tuo mondo e come il mio 
e hai guardato 
nell'uomo che sono e saro

=======================================================================

Ritornello:

=======================================================================

Bridge:

Csus2        D         Em7   Ritmo Fig. I
      Ti potranno dire che
Csus2       D       Em7   Ritmo Fig. I
    Non puo esistere 
          Csus2                D                    Em7  Ritmo Fig. I               
Niente che non si compra o si conta o si compra perche
        Csus2                  D                 Em7 D Csus9   Ritmo Fig. I(x2)
chi e deserto non vuole che qualcosa fiorisca in te.

 =======================================================================

Ritornello:

=======================================================================


Outro:
             G
 Perche al mondo
    Em7  D     G
 ci so---no anch'io
    Em7  D   Csus2
 ci so---no anch'io
   Em7   D    G
ci so---no anch'io
   Em7   D    G
ci so---no anch'io
=======================================================================            
Submit corrections

↑ Back to top | Tablatures and chords for acoustic guitar and electric guitar, ukulele, drums are parodies/interpretations of the original songs. You may use it for private study, scholarship, research or language learning purposes only