» » »

7 Seconds - My Gravity Bass

Artists:  A B C D E F G H I J K L M N O P Q R S T U V W X Y Z # 

My Gravity Bass

(ver. 1) Click to play this song!
7 Seconds
 Rating:
4/5 (4 votes)


 My Gravity lessons Tabs too difficult? Try these video lessons and learn fast
 
                
 / SLIDE
 ~ LET RING

part1
G-------------------77796-------------------77796->
D-999------999---8--------999------999---8-------->
A----999666---999-96---------999666---999-96------>
E------------------------------------------------->

>-------------------77796----------------------
>-999------999---8--------999------999--8---69-
>----999666---999-96---------999666---99-977---
>----------------------------------------------

part2
G---------------------------------------------------------------------------------------->
D----------------------------22-2-222---------------------------------------------------->
A-22-2-222-22-2-222-------------------22-2-222-22-2-222-----------------2-22-22222222222->
E-------------------22-2-222----------------------------2222222200000000----------------->

>---------------------------
>---------------------------
>-----------------222222222-
>-2222222200000000----------

part3
G---------------------------------------------------------------------
D---------------------------------------------------------------------
A---------------------------------2-22-222-2-22-222----------4-44-444-
E-7/0-0/2-22-0/2-22-0/2-22-0/2-22-------------------4-44-444----------

part4                                                                   3X
G-------------------------------------------------------------------------I
D-------------------------------------------------------------------------I
A-------------------------------------2-22-222-2-22-222----------4-44-444-I
E-2-22-222-2-22-222-2-22-222-2-22-222-------------------4-44-444----------I

repeat
part1
part2
part3
part4

THEN:

FINISH                                          2X
G-------------------77796-------------------77796-I
D-999------999---8--------999------999---8--------I
A----999666---999-96---------999666---999-96------I
E-------------------------------------------------I

                                    3X                                    3X
G-------------------------------------I-------------------------------------I
D-------------------------------------I----------------------------2-22-222-I
A-2-22-222-2-22-222----------5-55-555-I-2-22-222-2-22-222-------------------I
E-------------------2-22-222----------I-------------------2-22-222----------I

G--------------------------
D--------------------------
A-2-22-222-2-22-222-----2~-
E-------------------2-0----

thats all.. i guess.. have fun..
thats the hardest song ive ever played so plz correct me if you find mistakes..
  xxSID
            
Submit corrections



        My Gravity lessons Hard to play? Try these video lessons and learn fast My Gravity lessons
        
↑ Back to top | Tablatures and chords for acoustic guitar and electric guitar, ukulele, drums are parodies/interpretations of the original songs. You may use it for private study, scholarship, research or language learning purposes only