» » »

6 Voltios - Jodete Bass

Artists:  A B C D E F G H I J K L M N O P Q R S T U V W X Y Z # 

Jodete Bass

(ver. 1) Click to play this song!
6 Voltios
 Rating:
4/5 (4 votes)
                El Bajo de esta canción es facil pero la Guitarra es pendejaza...
(Para tocar esto solo tienen que seguir este orden pero respetar
cuantas veces se toca cada parte).


|------------------------------------|
|------------------------------------|
|------------------------------------| (x6)
|--5-5-5-7-7-7-8-8--3-3-3-5-5-5-7-7--|


|----------------------------------------------|
|----------------------------------------------|
|-------------7-7-7-7-7-------------5-5-5-5-5--| (x2)
|--5-5-5-5-5-------------3-3-3-3-3-------------|


|-----------------------|
|-----------------------|
|--------5-5-5----------| (x4)
|--5-7-8-------8-8-7-8--|


|---------------------|
|---------------------|
|---------------------|
|--5-5-5-7-7-7-8-8-5--|


Este es hasta ahora el único bajo que me saco porque
es tan facil que altoque lo saqué...
Saludos a todos...
            
Submit corrections

↑ Back to top | Tablatures and chords for acoustic guitar and electric guitar, ukulele, drums are parodies/interpretations of the original songs. You may use it for private study, scholarship, research or language learning purposes only