» » »

3 Doors Down - Race For The Sun Bass

Artists:  A B C D E F G H I J K L M N O P Q R S T U V W X Y Z # 

Race For The Sun Bass

(ver. 1) Click to play this song!
3 Doors Down
 Rating:
4/5 (4 votes)


 Race For The Sun lessons Tabs too difficult? Try these video lessons and learn fast
 
                Artist	:	3 Doors Down.
Album	:	Time of my life.
Song	:	Race for the sun.


Intro slide   intro
G|----------|----------------------------------------------------------------------------|
D|----------|----------------------------------------------------------------------------|
A|----------|-------------------------------------7-7-8-8-----------------------------0-0|
E|-8\-------|-10-10-10-10-10-10-10-10-10-10-10-10---------8-8-8-8-8-8-8-8-8-8-8-8-8-8----|

Verse
G|-------------------------------------------------------------------------|
D|-------------------------------------------------------------------------|
A|----------7-7-7-8-8-----------7-7-7-8-8------------------------------0-0-|
E|-10-10-10------------10-10-10------------8-8-8-8-8-8-8-8-8-8-8-8-8-8-----|

Chorus
G|-------------------------------------------------|
D|-------------------------------------------------|
A|----------888-8-8--0-----------------------------|
E|-10--8--8-------------8-10--8--8-1-1-1-3-3-3-3-3-|

Post-chorus
G|----------------------------------------------------|
D|----------------------------------------------------|
A|----------------------------8---------------------0-|
E|-10--10-10--10--10--10-10------8--8-8--8--8--8-8----|

Solo
G|---------------------------------------------------------|
D|---------------------------------------------------------|
A|-8-8-8-8-8-8-8-8-7-7-7-7-7-7-7-7-------------------------|
E|---------------------------------10-10-10-10-10-10-10-10-|

-----------------------------------------------------------------|
-----------------------------------------------------------------|
-------------------------8-8-8-8-8-8-8-8-10-10-10-10-10-10-10-10-|
-10-10-10-10-10-10-10-10-----------------------------------------|

Intro slide
Intro x2
Verse x4
Chorus x2
Intro x1
Verse x2
Chorus x2
Post-chorus x2
solo x1
Post-chorus x4

Do not copy this tab without the name of the original tablure converter.
            
Submit corrections



        Race For The Sun lessons Hard to play? Try these video lessons and learn fast Race For The Sun lessons
        
↑ Back to top | Tablatures and chords for acoustic guitar and electric guitar, ukulele, drums are parodies/interpretations of the original songs. You may use it for private study, scholarship, research or language learning purposes only