» » »

30 Seconds To Mars - Phase 1 Fortification Tabs

Artists:  A B C D E F G H I J K L M N O P Q R S T U V W X Y Z # 

Phase 1 Fortification Tabs

(ver. 1) Click to play this song!
30 Seconds To Mars
 Rating:
4.3/5 (22 votes)

 Phase 1 Fortification lessons Tabs too difficult? Try these video lessons and learn fast
 
                [Intro]
D|--------------------------------------------------------------------------------|
A|-------------------------------------------------/------------------------------|
F|----------------------77777-99999--10101010------/-12121212---10101010---66666--|
C|------7--8--3---(x2)--xxxxx-xxxxx--xxxxxxx-(x3)--/-xxxxxxxx---xxxxxxx----xxxxx--| riff ends with one note
G|---5------------------55555-77777--8-8-8-8-8-----/-10101010---88888------44444--|
C|--------------------------------------------------------------------------------|

D|-------------------------------------------------------------------------------|
A|-------------------------------------------------------------------------------|
F|-------------------------------------------------------------------------------|
C|-0-7-8-----0-7-8------0-7-8-10-8-6---------------------------------------------|
G|-0-7-8-----0-7-8------0-7-8-10-8-6---------------------------------------------|
C|-0-7-8-----0-7-8------0-7-8-10-8-6---------------------------------------------|

D|----------------------------------------------------------------------|
A|----------------------------------------------------------------------|
F|----------------------------------------------------------------------|
C|-0-7-8-----0-7-8------0-7-8-10-8-7------------------------------------|
G|-0-7-8-----0-7-8------0-7-8-10-8-7------------------------------------|
C|-0-7-8-----0-7-8------0-7-8-10-8-7------------------------------------|

D|-------------------------------------------------------------------------------------|
A|-------------------------------------------------------------------------------------|
F|-------------------------------------------------------------------------------------|
C|---------------------------------------------------------------------------------0---|
G|---555-777-88-333-77-88-555-777-88-101010-888-77-555-777-88--333--777-88---5-----0---|
C|---------------------------------------------------------------------------------0---|

D|-------------------------------------------------------------------------------|
A|-------------------------------------------------------------------------------|
F|-------------------------------------------------------------------------------|
C|-0-7-8-----0-7-8------0-7-8-10-8-6---------------------------------------------|
G|-0-7-8-----0-7-8------0-7-8-10-8-6---------------------------------------------|
C|-0-7-8-----0-7-8------0-7-8-10-8-6---------------------------------------------|

D|--------------------------------------------------------------------------------|
A|--------------------------------------------------------------------------------|
F|--------------------------------------------------------------------------------|
C|-0-7-8-----0-7-8------0-7-8-10-8-7----------------------------------------------|
G|-0-7-8-----0-7-8------0-7-8-10-8-7----------------------------------------------|
C|-0-7-8-----0-7-8------0-7-8-10-8-7----------------------------------------------|

D|-----------------------------------------------------------------------------|
A|-----------------------------------------------------------------------------|
F|-----9----4----13--13----/----------13-------13-------13---------------------|
C|-------------------------/---------------------------------------------------|
G|-------------------------/---------------------------------------------------|
C|---8----3----12--12------/---121212----121212---121212-----------------------|

D|----------------------------------------------------------------------------|
A|----------------------------------------------------------------------------|
F|----------------------------------------------------------------------------|
C|-0-----7-----8-----0-7-8------0-7-8-10-8-6----------------------------------|
G|-0-----7-----8-----0-7-8------0-7-8-10-8-6----------------------------------|
C|-0-----7-----8-----0-7-8------0-7-8-10-8-6----------------------------------|

            
Submit corrections


        Phase 1 Fortification lessons Hard to play? Try these video lessons and learn fast Phase 1 Fortification lessons
        
↑ Back to top | Tablatures and chords for acoustic guitar and electric guitar, ukulele, drums are parodies/interpretations of the original songs. You may use it for private study, scholarship, research or language learning purposes only