» » »

30 Seconds To Mars - Bright Lights Tabs

Artists:  A B C D E F G H I J K L M N O P Q R S T U V W X Y Z # 

Bright Lights Tabs

(ver. 1) Click to play this song!
30 Seconds To Mars
 Rating:
3.5/5 (21 vote)

 Bright Lights lessons Tabs too difficult? Try these video lessons and learn fast
 
                Tuning: Standard

0:16
e|---------------------------------------------------------------------------|
B|----6--5--------6--5----------6--5--------6--5-----------------------------|
G|----------5-----------5-------------5-----------5--------------------------|
D|---------------------------------------------------------------------------|
A|---------------------------------------------------------------------------|
E|---------------------------------------------------------------------------|

I'm Leaving... (slight delay)
e|---------------------------------------------------------------------------|
B|------6--------------------------------------------------------------------|
G|---------5-----------------------------------------------------------------|
D|---------------------------------------------------------------------------|
A|---------------------------------------------------------------------------|
E|---------------------------------------------------------------------------|

1:07
e|------------------------------|
B|---------------6--------------|
G|---4-----5-----------5--------|
D|------------------------------|
A|------------------------------|
E|------------------------------|(X4)

To run, to run, to run...
e|---------------------------------------------------------------------------|
B|----6--5--------6--5----------6--5--------6--5-----------------------------|
G|----------5-----------5-------------5-----------5--------------------------|
D|---------------------------------------------------------------------------|
A|---------------------------------------------------------------------------|
E|---------------------------------------------------------------------------|

OR

e|---------------------------------------------------------------------------|
B|---6-6-6-6-6-6-6-6------------------6-6-6-6-6-6-6-6-8-8-8-8-5-5-5-5--------|
G|--------------------4-4-4-4-7-7-7-7----------------------------------------|
D|---------------------------------------------------------------------------|
A|---------------------------------------------------------------------------|
E|---------------------------------------------------------------------------|

Time to live...

e|------------------------------|
B|------5--6-----5--6--5--6-----|
G|---5--------5-----------------|
D|------------------------------|
A|------------------------------|
E|------------------------------|(X8)

e|---------------------------------------------------------------------------|
B|---6-6-6-6-6-6-6-6------------------6-6-6-6-6-6-6-6-8-8-8-8-5-5-5-5--------|
G|--------------------4-4-4-4-7-7-7-7----------------------------------------|
D|---------------------------------------------------------------------------|
A|---------------------------------------------------------------------------|
E|---------------------------------------------------------------------------|
Until the end

            
Submit corrections


        Bright Lights lessons Hard to play? Try these video lessons and learn fast Bright Lights lessons
        
↑ Back to top | Tablatures and chords for acoustic guitar and electric guitar, ukulele, drums are parodies/interpretations of the original songs. You may use it for private study, scholarship, research or language learning purposes only