» » »

2pac - Thugz Mansion Remix Tabs

Artists:  A B C D E F G H I J K L M N O P Q R S T U V W X Y Z # 

Thugz Mansion Remix Tabs

(ver. 1) Click to play this song!
2pac
 Rating:
4/5 (4 votes)
                @-----------------------------------------------------@
@  Song: "Thugz Mansion Remix (Feat Nas)"             @
@  Artist: 2PAC			                      @						
@-----------------------------------------------------@

Standard Tuning  EADGBE

|------------------------------------------------------
|--------4-----------4-----------4-----------4---------
|--------5-----------5-----------5-----------5---------
|--------5-----------5-----------5-----------5---------
|-----------------------------3-----------3------------
|-----4-----------4------------------------------------


|------------------------------6-----------------------
|-----2-----4/6--------2-----4/6-----------------------
|-----3-----5/6--------3-----5/6-----------------------
|------------------------------------------------------
|------------------------------------------------------
|------------------------------------------------------


This is played through the whole song with different variations.
**NOTE: This is my first tab so it's probably all wrong, but it sounds
kinda like it.


December 2002
            
Submit corrections

↑ Back to top | Tablatures and chords for acoustic guitar and electric guitar, ukulele, drums are parodies/interpretations of the original songs. You may use it for private study, scholarship, research or language learning purposes only