» » »

13th Floor Elevators - Your Gonna Miss Me Tabs

Artists:  A B C D E F G H I J K L M N O P Q R S T U V W X Y Z # 

Your Gonna Miss Me Tabs

(ver. 1) Click to play this song!
13th Floor Elevators
 Rating:
4.2/5 (5 votes)
                 13th floor elevators
 from there 1966 psychedelic sound of the 13th floor elevators album

 verry easy song but the rith is verry catchy and it will hype you up to hear this song.

intro

-------2--------------3----------------------------------|
-------3----2---------0----------------------------------|
--1----2----2---------0----------------------------------|
--2---------2---------0----------------------------------|
--2-------------------2----------------------------------|
-----------------3----3----------------------------------|

main ryth and chorus
------2-2-------3------------------------------|
------3-3-2-2---0------------------------------|
--1-1-2-2-2-2---0------------------------------|
--2-2-----2-2---0------------------------------|
--2-2-----------2------------------------------|
--------------3-3------------------------------|

----------------------------------------------|
----------------------------------------------|
----------------------------------------------|
--------------5-------------------------------|
--7-7-7-7-7-7---------------------------------|
----------------------------------------------|

-------------------------------------------------|
-------------------------------------------------|
-------------------------------------------------|
-------------------------------------------------|
-------------------------------------------------|
--0-0-0-0-0-0-3----------------------------------|

-0-------------0------1--2--1--2--1--2---------------|
-1---3--1--3---1---3--1--3--1--3--1--3---------------|
-0---3--1--3---0---3--2--2--2--2--2--2------1--------|
-2---3--1--3---2---3--3-----3-----3---------2--------|
-3-------------3------3-----3-----3---------2--------|
----------------------1-----1-----1------------------|

-------2--2----------1-------------------------------------|
-------3--3--2-2-----0-------------------------------------|
--1-1--2--2--2-2-----0-------------------------------------|
--2-2--------2-2-----0-------------------------------------|
--2-2----------------2-------------------------------------|
------------------3--3-------------------------------------|


hav fun wiv the song i will be tabing more 13th floor elevators songs
            
Submit corrections

↑ Back to top | Tablatures and chords for acoustic guitar and electric guitar, ukulele, drums are parodies/interpretations of the original songs. You may use it for private study, scholarship, research or language learning purposes only