» » »

12 Stones - Only Human Tabs

Artists:  A B C D E F G H I J K L M N O P Q R S T U V W X Y Z # 

Only Human Tabs

(ver. 1) Click to play this song!
12 Stones
 Rating:
4/5 (4 votes)

 Only Human  lessons Tabs too difficult? Try these video lessons and learn fast
 
                Tuning: Standard

Intro/Chorus
e|------------------------------------------5--------8----8------------------|
B|---6-5------5------6-5------8-----6-5-------8----8----8--------------------|
G|-------7-5-------------7-5------------7-5----------------------------------|
D|---------------------------------------------------------------------------|
A|---------------------------------------------------------------------------|
E|---------------------------------------------------------------------------|

e|------------------------------------------5--------8----8---8----|
B|---6-5------5------6-5------8-----6-5-------8----8----8---8------|
G|-------7-5-------------7-5------------7-5------------------------|
D|-----------------------------------------------------------------|
A|-----------------------------------------------------------------|
E|-----------------------------------------------------------------|

e|----------------------------|
B|---6-5----------------------|
G|-------5-7--5-7--5-7-5-5----|
D|----------------------------|
A|----------------------------|
E|----------------------------|
Play this for all three choruses. For the verses I just improvise on the same 
scale as the intro.

Verse
Chorus
Verse
Chorus

Bridge
e|-------------------------------------------------------------|
B|-------------------------------------------------------------|
G|-------------------------------------------------------------|
D|--5-5-5-5-5-7-7-5-5-5-5-5-5-7-7-7-5--------------------------|
A|------------------------------------8-8-7-7-5-5-8-8-7-7------|
E|--------------------------------------------------------8-8--|

Solo 1
e|-------------------10br------------------------------10--12b-12b-12b-12br-10|
B|--13-12-10-12-13--------12---13-12-10-12-10-------10------------------------|
G|--------------------------------------------13-11---------------------------|
D|----------------------------------------------------------------------------|
A|----------------------------------------------------------------------------|
E|----------------------------------------------------------------------------|

e|-------------------------------------------------------------------|
B|-------------------------------------------------------------------|
G|-------------------------------------------------------------------|
D|--7-5-5------------------------------------------------------------|
A|--------8-8-7-7-8-8-8-8-8-8-8-8-8-----------5-5--------------------|
E|----------------------------------8-8-8-8-8-----7-7-7-7-8-8-8-8-8--|x2

Chorus

Outro
e|-------------------------------------------------------------|
B|-------------------------------------------------------------|
G|-------------------------------------------------------------|
D|--5-5-5-5-5-7-7-5-5-5-5-5-5-7-7-7-5--------------------------|
A|------------------------------------8-8-7-7-5-5-8-8-7-7------|
E|--------------------------------------------------------8-8--|

Solo 2
e|--------15-------15-------------15-------15-------15-13-12-10-13-12-8-3-8--|
B|--12-13----12-13----12-13-12-13----12-13----12-13--------------------------|
G|---------------------------------------------------------------------------|
D|---------------------------------------------------------------------------|
A|---------------------------------------------------------------------------|
E|---------------------------------------------------------------------------|            
Submit corrections


        Only Human  lessons Hard to play? Try these video lessons and learn fast Only Human  lessons
        
↑ Back to top | Tablatures and chords for acoustic guitar and electric guitar, ukulele, drums are parodies/interpretations of the original songs. You may use it for private study, scholarship, research or language learning purposes only