» » »

Zz Top, Woke Up With Wood Tabs (ver.2)

Artists:  A B C D E F G H I J K L M N O P Q R S T U V W X Y Z # 

Woke Up With Wood Tabs (ver.2)

Zz Top Tabs
 Rating:
4/5 (4 votes)
Woke Up With Wood lessons Tabs too difficult? Try these video lessons and learn fast
                (Solo)
Tuning: Use regular tuning
Listen to the song to figure out the timing

e|--------------8--------------8----------8---------------------------------|
B|----11b--------11-8--------8---11b--------11-8------8---------------------|
G|--------------------10b------------------------10b------------------------|
D|-------------------------------------------------------10-----8--8--------|
A|---------------------------------------------------------------10-10/8----|
E|--------------------------------------------------------------------------|

e|----------------------------------8-----------8------8--------------------|
B|-------------------------11b-------11-8------8-11b-----11-8--------8------|
G|----------------------------------------10b-----------------10b-----------|
D|-----------------1----------------------------------------------------10--|
A|-6-----------1-3---3------------------------------------------------------|
E|---8-8-----3--------------------------------------------------------------|

e|--------------------------------------------------------------------------|
B|--------------------------------------------------------------------------|
G|--------------------------------------------------------------------------|
D|-8—-8--------------1------------------------------------------------------|
A|--10-10/8-6-------3-1-3-3-1-----------------------------------------------|
E|------------8-8-----------------------------------------------------------|
		    ^Gibbons uses artificial harmonics for these 6 notes

| /  slide up
| \  slide down
| h  hammer-on
| p  pull-off
| ~  vibrato
| +  harmonic
| x  Mute note
            
Submit corrections

comments powered by Disqus
↑ Back to top | Zz Top Tabs for Woke Up With Wood. Lyrics for acoustic guitar and electric guitar. Tablatures and chords are parodies/interpretations of the original songs. You may use it for private study, scholarship, research or language learning purposes only