» » »

Zz Top, I Thank You Bass tabs (ver.1)

Artists:  A B C D E F G H I J K L M N O P Q R S T U V W X Y Z # 

I Thank You Bass tabs (ver.1)

Zz Top Tabs
 Rating:
4/5 (4 votes)
I Thank You lessons Tabs too difficult? Try these video lessons and learn fast
1
                Intro:
                                                     You didn't
 G-|--R---------|X3|------------|X3|-----------|--------------|
 D-|---E--------|  |---77----77-|  |-----------|3-4-5---77----|
 A-|----S-------|  |------------|  |-----------|--------------|
 E-|-----T------|  |55----55----|  |0-000000-1-|-2-3-55-------|
   have to love me but you did but you but you did and
 G-|------------|------------|------------|------------|
 D-|---77----77-|---77----77-|---77----77-|---77-------|
 A-|------------|------------|------------|------------|
 E-|55----55----|55----55----|55----55----|55----------|

    I thank you. verse 1
 G-|---------|X2|:|------------|------------|------------|
 D-|---------|  |:|---77----77-|---77----77-|---77----77-|
 A-|--7----5-|  |:|------------|------------|------------|
 E-|---------|  |:|55----55----|55----55----|55----55----|
                But you took your love to someone else I
wouldn't what its like to be loved to death
you make me feel like I never felt         kiss is so good I had to holar
 G-|------------|------------|------------|------------|
 D-|---77----77-|---77----77-|---77----77-|-----------3|
 A-|------------|------------|------------|------------|
 E-|55----55----|55----55----|55----55----|0-000000-1--|

   for help
 G-|-----|:
 D-|-4-5-|:|End of verse
 A-|-----|:
 E-|2-3--|:


 you didn't have to squeeze it but you did but you but you did and
 you didn't have to hold it but you did but you but you did and
 G-|------------|------------|------------|------------|
 D-|---77----77-|---77----77-|---77----77-|---77-------|
 A-|------------|------------|------------|------------|
 E-|55----55----|55----55----|55----55----|55----------|

   I thank you
   I thank you
 G-|------------|
 D-|------------|2nd verse same as the first
 A-|--7---5-----|
 E-|------------|

Lead                                              vocals only
                                                  you didn't
 G-|------------|--------7p5-|X3|------------|------------|
 D-|---77----77-|--55-------7|  |----------3-|4-----------|
 A-|------------|-----55-----|  |------------|------------|
 E-|55----55----|33----------|  |0-000000-1-2|-3----------|

    have to shake it but you did but you but you did and I thank you
play again
 you didn't have to make it but you did but you but you did and
 G-|------------|------------|------------|------------|
 D-|---77----77-|---77----77-|---77----77-|---77-------|
 A-|------------|------------|------------|------------|
 E-|55----55----|55----55----|55----55----|55----------|

    I thank you.
 G-|---------||
 D-|---------|| third verse...the same
 A-|--7----5-||
 E-|---------||

End with this fade same as the lead
 G-|------------|--------7p5-|
 D-|---77----77-|--55-------7|
 A-|------------|-----55-----|
 E-|55----55----|33----------|
            
Submit corrections

comments powered by Disqus
↑ Back to top | Zz Top Bass for I Thank You. Lyrics for acoustic guitar and electric guitar. 1 Tablatures and chords are parodies/interpretations of the original songs. You may use it for private study, scholarship, research or language learning purposes only