» » »

Zz Top, Got Me Under Pressure Tabs (ver.2)

Artists:  A B C D E F G H I J K L M N O P Q R S T U V W X Y Z # 

Got Me Under Pressure Tabs (ver.2)

Zz Top Tabs
 Rating:
4/5 (9 votes)
Got Me Under Pressure lessons Tabs too difficult? Try these video lessons and learn fast
                Here is the beginning of Got Me Under Pressure 

---------------|
---------------|
-9-9\7---9-9\7-|
-9-9\7-7-9-9\7-|
-------7-------|
---------------|

-----------------|---------------|
-----------------|---------------|
-----------------|---9\7---9-9\7-|	repeat this a few times
-9---9-9-9---9-9-|-9-9\7-7-9-9\7-|
-7---7-7-7---7-7-|-7-----7-------|
-----------------|---------------|
(palm mute this E5)


--------------|--------------------|
--------------|--------------------|
--------------|--------------------|
-0---0------0-|--0-----------------|	then repeating this four times brings
-0---0------0-|--0-------------2---|	you up to the first verse
--------------|------0--0--3-------|

If anyone wants another part of this song  ( one of the solos, the rhythm
            
Submit corrections

comments powered by Disqus
↑ Back to top | Zz Top Tabs for Got Me Under Pressure. Lyrics for acoustic guitar and electric guitar. Tablatures and chords are parodies/interpretations of the original songs. You may use it for private study, scholarship, research or language learning purposes only