» » »

Zz Top, Asleep In The Desert Tabs (ver.1)

Artists:  A B C D E F G H I J K L M N O P Q R S T U V W X Y Z # 

Asleep In The Desert Tabs (ver.1)

Zz Top Tabs
 Rating:
4/5 (6 votes)
Asleep In The Desert lessons Tabs too difficult? Try these video lessons and learn fast
                


      H.           E  E     Q    Q    S  S Q    E     Q    Q    S  S Q    E   
D#||---------------------|-------7----7s-6-7-------|-------7----7s-6-7-------|
A#||---------------------|-------8----8s-7-8-------|-------8----8s-7-8-------|
F#||---------------------|-------------------------|-------------------------|
C#||------------------2--|----------------------2--|-------------------------|
G#||---------------------|--0----------------------|--0----------------------|
D#||---------------------|-------------------------|-------------------------|


   Am7                                G#7                             
   E   E   E   E   E   E   E   E      E   E   E   E   E   E   E   E   
----------------------------------|----------------------------------|
----------------------------------|----------------------------------|
--12------12------12------12------|--11------11------11------11------|
------10------10------10------10--|------10------10------10------10--|
--12--------------12--------------|--11--------------11--------------|
----------------------------------|----------------------------------|


   Gm7                           F#7                       
   E  E   E  E   E  E   E  E     E   E  E  E  E  E  E  E   
------------------------------|---------------------------|
------------------------------|---------------------------|
--10-----10-----10-----10-----|--9------9-----9-----9-----|
------8------8------8------8--|------8-----8-----8-----8--|
--10------------10------------|--9------------9-----------|
------------------------------|---------------------------|


  D/A                    Am                         Em                    
  E   E  H.              Q.     S S S S S E  E.     E  E  E  E  H         
----------------------|--5------7-5---7-7-7--5---|-----------------------|
----------------------|-------------8------------|--5--8--7--------------|
---------7------------|--------------------------|-----------9--L--------|
------4---------------|--------------------------|-----------------------|
--0---L--L------------|--------------------------|-----------------------|
----------------------|--------------------------|-----------------------|


  A#m            C#                 Bm                           
  E    E   E  E  S   S E   E  E     S  S S S S E  S E  E  S E.   
---------------------------------|------------------------------|
--------------9--9--11-9------9--|------------------------------|
----------10--------------10-----|--6--7-6--------9-7-----------|
--8---11-------------------------|---------9-L-7----------7-9---|
---------------------------------|---------------------9--------|
---------------------------------|------------------------------|


       Flamenco Improv.                                               
    Bm                                       C                        
    E  E                E  E  E  E  E  E     E  E  E  E  E  E  E  E   
|-----------------------------------------|--------------------------|
|-----------------------------------------|--------------------------|
|*----------------------------------2--4--|-----------------2--4--5--|
|*-------------------------2--4--5--------|--------2--3--5-----------|
|---2--4----------------5-----------------|--3--5--------------------|
|-----------------------------------------|--------------------------|


  Am                         Em                           
  E  E  E  E  E  E  E  E     E  E   E  E  E   E  E  E   4x
--------------------------|-----------------------------||
--------------------------|-----------------------------||
--------------------------|----------------------7--9--*||
--------------------5--7--|------------7--9--10--------*||
-----------5--7--8--------|--7--9--10-------------------||
--5--7--8-----------------|-----------------------------||


   Am7                                G#7                             
   E   E   E   E   E   E   E   E      E   E   E   E   E   E   E   E   
----------------------------------|----------------------------------|
----------------------------------|----------------------------------|
--12------12------12------12------|--11------11------11------11------|
------10------10------10------10--|------10------10------10------10--|
--12--------------12--------------|--11--------------11--------------|
----------------------------------|----------------------------------|


   Gm7                           F#7                       
   E  E   E  E   E  E   E  E     E   E  E  E  E  E  E  E   
------------------------------|---------------------------|
------------------------------|---------------------------|
--10-----10-----10-----10-----|--9------9-----9-----9-----|
------8------8------8------8--|------8-----8-----8-----8--|
--10------------10------------|--9------------9-----------|
------------------------------|---------------------------|


  Fm7                         E7                         D/A                  
  E   E  E  E  E  E  E  E     E  E  E  E  E  E  E  E     E   E  H.            
---------------------------|--------------------------|----------------------|
---------------------------|--------------------------|----------------------|
--8------8-----8-----8-----|--7-----7-----7-----7-----|---------7------------|
------6-----6-----6-----6--|-----6-----6-----6-----6--|------4---------------|
--8------------8-----------|--7-----------7-----------|--0---L--L------------|
---------------------------|--------------------------|----------------------|


  Am                         Em                    
  Q.     S S S S S E  E.     E  E  E  E  H         
--5------7-5---7-7-7--5---|-----------------------|
-------------8------------|--5--8--7--------------|
--------------------------|-----------9--L--------|
--------------------------|-----------------------|
--------------------------|-----------------------|
--------------------------|-----------------------|


  A#m            C#                 Bm                           
  E    E   E  E  S   S E   E  E     S  S S S S E  S E  E  S E.   
---------------------------------|------------------------------|
--------------9--9--11-9------9--|------------------------------|
----------10--------------10-----|--6--7-6--------9-7-----------|
--8---11-------------------------|---------9-L-7----------7-9---|
---------------------------------|---------------------9--------|
---------------------------------|------------------------------|


    Bm                         C                        
    E  E  E  E  E  E  E  E     E  E  E  E  E  E  E  E   
|---------------------------|--------------------------|
|---------------------------|--------------------------|
|*--------------------2--4--|-----------------2--4--5--|
|*-----------2--4--5--------|--------2--3--5-----------|
|---2--4--5-----------------|--3--5--------------------|
|---------------------------|--------------------------|


  Am                         Em                             C               C   
  E  E  E  E  E  E  E  E     E  E   E  E  E   E  E  E       H.           E  E   
--------------------------|-----------------------------||--0------------L--0--|
--------------------------|-----------------------------||--1------------L--1--|
--------------------------|----------------------7--9--*||--0------------L--0--|
--------------------5--7--|------------7--9--10--------*||--2------------L--2--|
-----------5--7--8--------|--7--9--10-------------------||--3------------L--3--|
--5--7--8-----------------|-----------------------------||---------------------|


  G                     C        D    C    D              Em     D     
                                 |----3----|                           
  H.           E  E     H        Q    Q    Q       Q.     Q.     Q     
--3------------L--3--|--0--------2----0----2----|--2------0------2----|
--3------------L--3--|--1--------3----1----3----|--3------0------3----|
--0------------L--0--|--0--------2----0----2----|--2------0------2----|
--0------------L--0--|--2--------0----2----0----|--0------2------0----|
--2------------L--2--|--3-------------3---------|---------2-----------|
--3------------L--3--|--------------------------|---------0-----------|


  C                   G                    F                      
  W                   H.           Q       Q.     E  E  E  E  E   
--0----------------|--3------------3----|--1---------------------|
--1----------------|--3------------3----|--1------------1--------|
--0----------------|--0------------0----|--2---------------2-----|
--2----------------|--0------------0----|--3---------3--------3--|
--3----------------|--2------------2----|--3------3--------------|
-------------------|--3------------3----|--1---------------------|


  D                             G5            
  H.           E  E     Q.      E   H         
---------------------|---------15---L--------|
---------------------|---------15---L--------|
--7------------L--7--|--7------12---L--------|
--7------------L--7--|--7------12---L--------|
--5------------L--5--|--5--------------------|
---------------------|-----------------------|


   Am7                                G#7                             
   E   E   E   E   E   E   E   E      E   E   E   E   E   E   E   E   
----------------------------------|----------------------------------|
----------------------------------|----------------------------------|
--12------12------12------12------|--11------11------11------11------|
------10------10------10------10--|------10------10------10------10--|
--12--------------12--------------|--11--------------11--------------|
----------------------------------|----------------------------------|


   Gm7                           F#7                       
   E  E   E  E   E  E   E  E     E   E  E  E  E  E  E  E   
------------------------------|---------------------------|
------------------------------|---------------------------|
--10-----10-----10-----10-----|--9------9-----9-----9-----|
------8------8------8------8--|------8-----8-----8-----8--|
--10------------10------------|--9------------9-----------|
------------------------------|---------------------------|


  Fm7                         E7                       
  E   E  E  E  E  E  E  E     E  E  E  E  E  E  E  E   
---------------------------|--------------------------|
---------------------------|--------------------------|
--8------8-----8-----8-----|--7-----7-----7-----7-----|
------6-----6-----6-----6--|-----6-----6-----6-----6--|
--8------------8-----------|--7-----------7-----------|
---------------------------|--------------------------|


  Ritard                   
  D/A                      
  E      E  H.             
-------------------------||
-------------------------||
------------7------------||
---------4---------------||
--0------L--L------------||
-------------------------||




Duration Legend
---------------
W - whole
H - half
Q - quarter
E - 8th
S - 16th
T - 32nd
X - 64th
. - note dotted
|-n-|  - n-tuplets


Tablature Legend
----------------
L - tied note
x - dead note
g - grace note
(n) - ghost note
> - accentuded note
NH - natural harmonic
AH - artificial harmonic
TH - tapped harmonic
SH - semi harmonic
PH - pitch harmonic
h - hammer on
p - pull off
b - bend
br - bendRelease
pb - preBend
pbr - preBendRelease
brb - bendReleaseBend
\n/ - tremolo bar dip
\n - tremolo bar dive
-/n - tremolo bar Release up
/n\ - tremolo bar inverted dip
/n - tremolo bar return
-\n - tremolo bar Release down
S - shift slide
s - legato slide
/ -  slide into from below or out of upwards
\ -  slide into from above or out of downwards
~ - vibrato
W - wide vibrato
tr - trill
TP - tremolo picking
T - tapping
S - slap
P - pop
< - fade in
^ - brush up
v - brush down
            
Submit corrections

comments powered by Disqus
↑ Back to top | Zz Top Tabs for Asleep In The Desert. Lyrics for acoustic guitar and electric guitar. Tablatures and chords are parodies/interpretations of the original songs. You may use it for private study, scholarship, research or language learning purposes only