>
 >
Asleep In The Desert

Asleep In The Desert Bass Tabs

Zz Top - Asleep In The Desert chords, tabs, tablatures, lyrics

Guitar lessons | Add/correct | Request | Top 50 tabs Artists:  A B C D E F G H I J K L M N O P Q R S T U V W X Y Z 0-9

Asleep In The Desert Bass Tabs – Zz Top

CD, Sheet music, Poster

Do you like Asleep In The Desert? Share with your friends now
Bass TabsTabs



      H.           E  E     H.           E  E     H.           Q     
F#||---------------------|---------------------|--------------------|
C#||------------------2--|------------------2--|--------------------|
G#||---------------------|--0------------------|--0-----------------|
D#||---------------------|---------------------|--------------------|


  Am7                  G#7                  Gm7                
  H        H           H        H           H        H         
--------------------|--------------------|--------------------|
--------------------|--------------------|--------------------|
--0--------0--------|--------------------|--------------------|
--------------------|--4--------4--------|--3--------3--------|


  F#7                  D/A                         Am                
  H        H           H.            S   S   E     W                 
--------------------|---------------------------|-------------------|
--------------------|---------------12s-11s-12--|-------------------|
--------------------|--0------------------------|--0----------------|
--2--------2--------|---------------------------|-------------------|


  Em                    A#m        C#          Bm                  
  H.           E  E     Q    E  E  H           H.           E  E   
---------------------|----------------------|---------------------|
---------------------|----------------------|---------------------|
------------------0--|--1----1--3--4--------|--2---------------0--|
--0------------L-----|----------------------|---------------2-----|


    Bm                   C            G/B     Am                  
    H.           Q       H.           Q       Q    H        Q     
|---------------------|--------------------|---------------------|
|*--------------------|--------------------|-------2--------0----|
|*--2------------0----|--3------------2----|--0------------------|
|---------------------|--------------------|---------------------|


  Em                     Am7                  G#7                
  H.           Q     4x  H        H           H        H         
---------------------||--------------------|--------------------|
--------------------*||--------------------|--------------------|
--------------------*||--0--------0--------|--------------------|
--0------------3-----||--------------------|--4--------4--------|


  Gm7                  F#7                  Fm7                
  H        H           H        H           H        H         
--------------------|--------------------|--------------------|
--------------------|--------------------|--------------------|
--------------------|--------------------|--------------------|
--3--------3--------|--2--------2--------|--1--------1--------|


  E7                   D/A                         Am                
  H        H           H.            S   S   E     W                 
--------------------|---------------------------|-------------------|
--------------------|---------------12s-11s-12--|-------------------|
--------------------|--0------------------------|--0----------------|
--0--------0--------|---------------------------|-------------------|


  Em                    A#m        C#          Bm                  
  H.           E  E     Q    E  E  H           H.           E  E   
---------------------|----------------------|---------------------|
---------------------|----------------------|---------------------|
------------------0--|--1----1--3--4--------|--2---------------0--|
--0------------L-----|----------------------|---------------2-----|


    Bm                   C            G/B     Am                  
    H.           Q       H.           Q       Q    H        Q     
|---------------------|--------------------|---------------------|
|*--------------------|--------------------|-------2--------0----|
|*--2------------0----|--3------------2----|--0------------------|
|---------------------|--------------------|---------------------|


  Em                     C                     G                   
  H.           Q         H.           E  E     H.           E  E   
---------------------||---------------------|---------------------|
--------------------*||---------------------|---------------------|
--------------------*||--3------------L--3--|---------------------|
--0------------3-----||---------------------|--3------------L--3--|


  C         D    C     D               Em     D       C                 
            |-----3----|                                                
  H         Q    Q     Q       Q.      Q.     Q       W                 
----------------------------|----------------------|-------------------|
----------------------------|----------------------|-------------------|
--3--------/5----3s----5----|--5------/7------5----|--3----------------|
----------------------------|----------------------|-------------------|


  G                    F                    D                 
  H.           Q       W                    W                 
--------------------|-------------------|--------------------|
--------------------|-------------------|--------------------|
--------------------|-------------------|--/5----------------|
--3------------3----|--1----------------|--------------------|


            G              Am7                    G#7                  
    Q.      H        E     H        E  E  Q       H        E  E  Q     
-----------12-----------|----------------------|----------------------|
--/12-------------------|----------------------|----------------------|
------------------------|--0--------0--0--L----|----------------------|
---------------------3--|----------------------|--4--------4--4--L----|


  Gm7                    F#7                    Fm7                  
  H        E  E  Q       H        E  E  Q       H        E  E  Q     
----------------------|----------------------|----------------------|
----------------------|----------------------|----------------------|
----------------------|----------------------|----------------------|
--3--------3--3--L----|--2--------2--2--L----|--1--------1--1--L----|


  E7                     D/A                
  H        E  E  Q       W                  
----------------------|-------------------||
----------------------|-------------------||
----------------------|--0----------------||
--0--------0--0--L----|-------------------||




Duration Legend
---------------
W - whole
H - half
Q - quarter
E - 8th
S - 16th
T - 32nd
X - 64th
. - note dotted
|-n-|  - n-tuplets


Tablature Legend
----------------
L - tied note
x - dead note
g - grace note
(n) - ghost note
> - accentuded note
NH - natural harmonic
AH - artificial harmonic
TH - tapped harmonic
SH - semi harmonic
PH - pitch harmonic
h - hammer on
p - pull off
b - bend
br - bendRelease
pb - preBend
pbr - preBendRelease
brb - bendReleaseBend
\n/ - tremolo bar dip
\n - tremolo bar dive
-/n - tremolo bar Release up
/n\ - tremolo bar inverted dip
/n - tremolo bar return
-\n - tremolo bar Release down
S - shift slide
s - legato slide
/ -  slide into from below or out of upwards
\ -  slide into from above or out of downwards
~ - vibrato
W - wide vibrato
tr - trill
TP - tremolo picking
T - tapping
S - slap
P - pop
< - fade in
^ - brush up
v - brush down





Comments


Popular Zz Top tabs & chords
Nasty Dogs And Funky Kings Bass Tabs
Woke Up With Wood Bass Tabs
Pearl Necklace Chords
A Fool For Your Stockings Tabs
Arrested For Driving While Blind Intro Tabs
Heard It On The X 1 Tabs
I Need You Tonight Tabs
Just Got Paid 1 Tabs
Tube Snake Boogie Tabs
Waitin' For The Bus 1 Tabs


Song lyrics



↑ Back to top | Tablatures and chords are parodies/interpretations of the original songs. You may use it for private study, scholarship, research or language learning purposes only
© 2014 AZChords.com Contact us | Privacy policy | DMCA | Add/correct tabs | Request tabs | Top 50 tabs