» » »

Chaos Deathcult Bass tabs (ver.1)

Artists:  A B C D E F G H I J K L M N O P Q R S T U V W X Y Z # 

Chaos Deathcult Bass tabs (ver.1)

Zyklon
Rating:
0/5 (0 votes)

Hard to play? Try these video lessons and learn fast.
                

Tablature Notation
------------------
..  - palm mute                 /  - slide up to
\  - slide down to              ~  - vibrato
h  - hammer on                  b  - bend
p  - pull off                   Suffixes for bend
ph - pinch harmonic             f - full bend    h - half bend
*  - see comment                r - release      t - tap bend
X  - percussion mute            ~ - vibrato bend
@  - slight palm mute           () - ghost note, sustained note
"  - tremolo pick




Tune down one whole step

Intro
|-----------------------|-----------------------|
|-----------------------|-----------------------|
|-------4----3----5-3-5-|-------4----3----5-3-5-|
|-0-000---00---00-------|-0-000---00---00-------|



Riff A (1.5x)
|-----------------------|--------------------|
|-----------------------|--------------------|
|-------4----3----5-3-5-|-------4---3----5/8-|
|-0-000---00---00-------|-0-000---00--00-----|
 

|------------5---|------------------|
|----------------|------------------|
|-------4--------|-------4----2-/5\-|
|-0-000---00-----|-0-000---00-------|
  

|------------5---|-------------------|
|----------------|-------------------|
|-------4--------|-------4---3/7"-6"-|
|-0-000---00-----|-0-000---0---------|
  

Riff B (2x)
|----------------------------------|
|----------------------------------|
|----------------------------------|
|-0--3\-1-1--7\-0--1/3-0-1-1-5/6-5-|
                     

|--------------------------------|
|--------------------------------|
|--------------------------------|
|-0--3\-1-1--7\-0--1/3-0-1-1-5-5-|
                       .
 then play Riff A (1.5x)
then play Riff B (2x)

Riff C Intro
|-------------------------------------------------------------------|Guitar
|-------------------------------------------------------------------|
|-14--------14--------14-13--------13------9/14--------14--------14-|
|-14--------14--------14-13--------13------9/14--------14--------14-|
|-12-121212-12-121212-12-11-111111-11-1111-7/12-121212-12-121212-12-|
|-------------------------------------------------------------------|
      

 * tremolo pick while sliding   
|-----------------------------|
|-----------------------------|
|--8/12\----------------------|
|-----------------------------|


Riff C.1 (3x)
|-------------------------------------------------------------------|
|-------------------------------------------------------------------|
|-12-121212-12-121212-12-11-111111-11-1111-7/12-121212-12-121212-12-|
|-------------------------------------------------------------------|
   

 * tremolo pick while sliding   
|-----------------------------|
|-----------------------------|
|--8/12\----------------------|
|-----------------------------|




Riff C.2 (3x)
|--------------------------------------------------|
|--------------------------------------------------|
|-12-121212-12-121212-12-11"-----------------------|
|--------------------------------------------------|
     

|-----------------------------------------|
|-----------------------------------------|
|--12-121212-12-121212-12-11"-12"-14"-15"-|
|-----------------------------------------|
   

Riff D.1
|------------------------------------------|
|------------------------------------------|
|-7"--------3"--------7"-------12"---------|
|------------------------------------------|


|------------------------------------|
|------------------------------------|
|-7"--------3"-----------------------|
|---------------------2"-3"---7"-10"-|


Riff D.2 (2x)
|----------------------------------------|
|----------------------------------------|
|-7"--------3"--------7"-------12"-------|
|----------------------------------------|


                      1st ending       2nd ending
|--------------------|----------------|----------------|
|--------------------|----------------|----------------|
|-7"--------3"-------|----------------|----------------|
|--------------------|-2"-3"---7"-10"-|-2"-3"---7"-10"-|


Riff E Intro
|--------------------------------|
|--------------------------------|
|--------------------------------|
|-2-222-3-333-3--5-555--8-888--8-|
  

|---------------------|---------------------|
|---------------------|---------------------|
|---------------------|---------------------|
|-2"--3"-----5"---8"--|--2"--3"-----5"---8"-|


Riff E (2x)
|--------------------------------------------------------------------------|
|--------------------------------------------------------------------------|
|-7-777-7-7777-7--3-333-3-3333-3--7-777-7-7777-7--12-121212-12-12121212-12-|
|--------------------------------------------------------------------------|
   

|--------------------------------|
|--------------------------------|
|-7-777-7-7777-7--3-333-3-3333-3-|
|--------------------------------|
    

(play twice on last time)
|-------------------------------|
|-------------------------------|
|-------------------------------|
|-2-222-3-3333-3-5-555-8-8888-8-|
    

Then play Riff D.2 (2x) with this ending:
|-------------------------------|
|-------------------------------|
|-------------------------------|
|-2-222-3-3333-3-5-555-8-8888-8-|


|---------------------------------|
|---------------------------------|
|---------------------------------|
|-2--3-----5--8\---2--3-----5--8--|
            
Hard to play? Try these video lessons and learn fast. | Correct




comments powered by Disqus
↑ Back to top | Tablatures and chords are parodies/interpretations of the original songs. You may use it for private study, scholarship, research or language learning purposes only