» » »

Zyklon, Chaos Deathcult Tabs (ver.1)

Artists:  A B C D E F G H I J K L M N O P Q R S T U V W X Y Z # 

Chaos Deathcult Tabs (ver.1)

Zyklon Tabs
 Rating:
4.2/5 (5 votes)
Chaos Deathcult lessons Tabs too difficult? Try these video lessons and learn fast
                Zyklon - "Chaos Deathcult"

Music by Zamoth, Destructhor and T. Akkerhaugen






Tablature Notation
------------------
..  - palm mute                 /  - slide up to
\  - slide down to              ~  - vibrato
h  - hammer on                  b  - bend
p  - pull off                   Suffixes for bend
ph - pinch harmonic             f - full bend    h - half bend
*  - see comment                r - release      t - tap bend
X  - percussion mute            ~ - vibrato bend
@  - slight palm mute           () - ghost note, sustained note
"  - tremolo pick




Tune down one whole step




Intro
|-----------------------|-----------------------|Gtr1&2
|-----------------------|-----------------------|
|-----------------------|-----------------------|
|-----------------------|-----------------------|
|-------4----3----5-3-5-|-------4----3----5-3-5-|
|-0-000---00---00-------|-0-000---00---00-------|
  . ...   ..   ..         . ...   ..   ..





Riff A (1.5x)
|-----------------------|--------------------|Gtr1&2
|-----------------------|--------------------|
|-----------------------|--------------------|
|-----------------------|----------------6/9-|
|-------4----3----5-3-5-|-------4---3----5/8-|
|-0-000---00---00-------|-0-000---00--00-----|
  . ...   ..   ..         . ...   ..  ..




|----------------|------------------|Gtr1&2
|----------------|------------------|
|------------5ph-|------------------|
|----------------|------------3-/6\-|
|-------4--------|-------4----2-/5\-|
|-0-000---00-----|-0-000---00-------|
  . ...   ..       . ...   ..




|----------------|-------------------|Gtr1&2
|----------------|-------------------|
|------------5ph-|-------------------|
|----------------|-------------------|
|-------4--------|-------4---3/7"-6"-|
|-0-000---00-----|-0-000---0---------|
  . ...   ..       . ...   .







Riff B (2x)
|----------------------------------|Gtr1&2
|----------------------------------|
|----------------------------------|
|-2--5\-3-3--9\-2--3/5---3-3-7/8-7-|
|-2--5\-3-3--9\-2--3/5---3-3-7/8-7-|
|-0--3\-1-1--7\-0--1/3-0-1-1-5/6-5-|
                       .




|--------------------------------|Gtr1&2
|--------------------------------|
|--------------------------------|
|-2--5\-3-3--9\-2--3/5---3-3-----|
|-2--5\-3-3--9\-2--3/5---3-3-5-5-|
|-0--3\-1-1--7\-0--1/3-0-1-1-5-5-|
                       .
 




then play Riff A (1.5x)
then play Riff B (2x)







Riff C Intro
|-------------------------------------------------------------------|Gtr1
|-------------------------------------------------------------------|
|-14--------14--------14-13--------13------9/14--------14--------14-|
|-14--------14--------14-13--------13------9/14--------14--------14-|
|-12-121212-12-121212-12-11-111111-11-1111-7/12-121212-12-121212-12-|
|-------------------------------------------------------------------|
      . . .     . . .        . . .     . .       . . .     . . .



 * tremolo pick while sliding   
|-----------------------------|Gtr1&2
|-----------------------------|
|-10/14\----------------------|
|-10/14\----------------------|
|--8/12\----------------------|
|-----------------------------|





Riff C.1 (3x)
|-------------------------------------------------------------------|Gtr1&2
|-------------------------------------------------------------------|
|-14--------14--------14-13--------13------9/14--------14--------14-|
|-14--------14--------14-13--------13------9/14--------14--------14-|
|-12-121212-12-121212-12-11-111111-11-1111-7/12-121212-12-121212-12-|
|-------------------------------------------------------------------|
      . . .     . . .        . . .     . .       . . .     . . .



 * tremolo pick while sliding   
|-----------------------------|Gtr1&2
|-----------------------------|
|-10/14\----------------------|
|-10/14\----------------------|
|--8/12\----------------------|
|-----------------------------|




Riff C.2 (3x)
|--------------------------------------------------|Gtr1
|--------------------------------------------------|
|-14--------14--------14-13"-----------------------|
|-14--------14--------14-13"-----------------------|
|-12-121212-12-121212-12-11"-----------------------|
|--------------------------------------------------|
|      . . .     . . .
|
|
|
|------------------------------7-11p7------4-8p4---|Gtr2
|----------------------------9--------9--6-------6-|
|-14--------14--------14---------------------------|
|-14--------14--------14---------------------------|
|-12-121212-12-121212-12---------------------------|
|--------------------------------------------------|
      . . .     . . .






|-----------------------------------------|Gtr1&2
|-----------------------------------------|
|--14--------14--------14-13"-14"-16"-17"-|
|--14--------14--------14-13"-14"-16"-17"-|
|--12-121212-12-121212-12-11"-12"-14"-15"-|
|-----------------------------------------|
       . . .     . . .









Riff D.1
|------------------------------------------|Gtr1
|-----------4"-----------------------------|
|-9"--------5"--------9"-------14"---------|
|-9"-5"-9"--5"-1"-5"--9"-5"-9"-14"-10"-14"-|
|-7"--------3"--------7"-------12"---------|
|------------------------------------------|
|
|
|
|
|------------------------------------------|Gtr2
|-----------4"-----------------------------|
|-9"--------5"--------9"-------14"---------|
|-9"--------5"--------9"-------14"---------|
|-7"--------3"--------7"-------12"---------|
|------------------------------------------|






|------------------------------------|Gtr1
|-----------4"-----------------------|
|-9"--------5"-----------------------|
|-9"-5"-9"--5"-1"-5"-----------------|
|-7"--------3"-----------------------|
|---------------------2"-3"---7"-10"-|
|
|
|
|
|------------------------------------|Gtr2
|-----------4"-----------------------|
|-9"--------5"-----------------------|
|-9"--------5"-----------------------|
|-7"--------3"-----------------------|
|---------------------2"-3"---7"-10"-|







Riff D.2 (2x)
|----------------------------------------|Gtr1
|-----------4"---------------------------|
|-9"--------5"--------9"-------14"-------|
|-9"--------5"--------9"-------14"-------|
|-7"--------3"--------7"-------12"-------|
|----------------------------------------|
|
|
|
|
|---------------6"-5"-7"-----------------|Gtr2
|-8"--7"-8"-4"------------8"-5"----------|
|-------------------------------5"-7"-8"-|
|----------------------------------------|
|----------------------------------------|
|----------------------------------------|





                      1st ending       2nd ending
|--------------------|----------------|----------------|Gtr1
|-----------4"-------|----------------|----------------|
|-9"--------5"-------|----------------|----------------|
|-9"--------5"-------|----------------|----------------|
|-7"--------3"-------|----------------|-4"-5"---9"-12"-|
|--------------------|-2"-3"---7"-10"-|-2"-3"---7"-10"-|
|
|
|
|                     1st ending       2nd ending
|--------------8"-7"-|----------------|----------------|Gtr2
|-8"--7"-8"-4"-------|----------------|----------------|
|--------------------|----------------|----------------|
|--------------------|----------------|----------------|
|--------------------|----------------|-4"-5"---9"-12"-|
|--------------------|-2"-3"---7"-10"-|-2"-3"---7"-10"-|







Riff E Intro
|--------------------------------|Gtr1
|--------------------------------|
|--------------------------------|
|--------------------------------|
|-4-----5-----5--7-----10-----10-|
|-2-222-3-333-3--5-555--8-888--8-|
    ...   ...      ...    ...




|---------------------|---------------------|Gtr1&2
|---------------------|---------------------|
|---------------------|---------------------|
|---------------------|---------------------|
|-4"--5"-----7"--10"--|--4"--5"-----7"--10"-|
|-2"--3"-----5"---8"--|--2"--3"-----5"---8"-|






Riff E (2x)
|--------------------------------------------------------------------------|Gtr1&2
|-----------------4-----4------4-------------------------------------------|
|-9-----9------9--5-----5------5--9-----9------9--14--------14----------14-|
|-9-----9------9--5-----5------5--9-----9------9--14--------14----------14-|
|-7-777-7-7777-7--3-333-3-3333-3--7-777-7-7777-7--12-121212-12-12121212-12-|
|--------------------------------------------------------------------------|
    ...   ....      ...   ....      ...   ....        . . .     . . . .




|--------------------------------|Gtr1&2
|-----------------4-----4------4-|
|-9-----9------9--5-----5------5-|
|-9-----9------9--5-----5------5-|
|-7-777-7-7777-7--3-333-3-3333-3-|
|--------------------------------|
    ...   ....      ...   ....



(play twice on last time)
|-------------------------------|Gtr1&2
|-------------------------------|
|-------------------------------|
|-------------------------------|
|-------------------------------|
|-2-222-3-3333-3-5-555-8-8888-8-|
    ...   ....     ...   .... 







then play Riff D.2 (2x) with this ending:



|-------------------------------|Gtr1&2
|-------------------------------|
|-------------------------------|
|-------------------------------|
|-------------------------------|
|-2-222-3-3333-3-5-555-8-8888-8-|
    ...   ....     ...   .... 



|---------------------------------|Gtr1&2
|---------------------------------|
|---------------------------------|
|---------------------------------|
|---------------------------------|
|-2--3-----5--8\---2--3-----5--8--|
            
Submit corrections

comments powered by Disqus
↑ Back to top | Zyklon Tabs for Chaos Deathcult. Lyrics for acoustic guitar and electric guitar. Tablatures and chords are parodies/interpretations of the original songs. You may use it for private study, scholarship, research or language learning purposes only