» » »

Zwan, Love To Love Chords (ver.2)

Artists:  A B C D E F G H I J K L M N O P Q R S T U V W X Y Z # 

Love To Love Chords (ver.2)

Zwan Tabs
 Rating:
4.2/5 (5 votes)
Love To Love lessons Tabs too difficult? Try these video lessons and learn fast
1
                Spent a while looking for a tab to this song on the internet, couldnt find anything
than the solo so i've worked it out myself and put it up here hastily as this song is way
beautiful to not be available. Pretty sure its correct, let me know if there are any 
as sometimes it takes another pair of ears :)

P.S. rushed putting this up as late for college so chords above words are in slightly
wrong place but im sure you can work it out

EnjoY, Alex Curtis...

Capo 6

D, A, G, Bm

D, A, G....


D            A              G              Bm
Oh it's been too many times and I can't go back
Night bars, guitars, rundown motels like shacks
What it amounts to I don't want it at all
Lost you and I want you today

D        A         G       Bm
   Misty green and blue
D          A       G
   Love to love to love you
   Misty green and blue
   Love to love to love you

Don't say that you'll never know
Love to love to love you

Misty green and blue
Love to love to love you
Misty green and blue
Love to love to love you

E|---------------------------------------------------------------------|
B|---------------------------------------------------------------------|
G|---------------------------------------------------------------------|
D|--5---5--4-----------------------5--7--5-4---------------------------|
A|------------5------------------------------5-------------------------|
E|---------------5--5---3-5-3-/7----------------5--7-5-3-5-7-0---------|

E|---------------------------------------------------------------------|
B|---------------------------------------------------------------------|
G|---------------------------------------------------------------------|
D|--5---5--4-----------------------5--7--5-4---------------------------|
A|------------5------------------------------5-------------------------|
E|---------------5--5---3-5-3-/7----------------5--7-0-----------------|
            
Submit corrections

comments powered by Disqus
↑ Back to top | Zwan Chords for Love To Love. Lyrics for acoustic guitar and electric guitar. 1 Tablatures and chords are parodies/interpretations of the original songs. You may use it for private study, scholarship, research or language learning purposes only