>
 >
 Come With Me

 Come With Me Guitar Tabs

Zwan -  Come With Me chords, tabs, tablatures, lyrics

Guitar lessons | Add/correct | Request | Top 50 tabs Artists:  A B C D E F G H I J K L M N O P Q R S T U V W X Y Z 0-9

 Come With Me Guitar Tabs – Zwan

CD, Sheet music, Poster

Do you like  Come With Me? Share with your friends now
ChordsTabsTabs v2
Chord Chart:
G D/F# Em D
E-3----3---0---2--|
B-3----3---0---3--|
G-0----2---0---2--|
D-0----0---2---0--|
A-x----0---2------|
E-3----2---0------|

Opening

Voice run through keyboard loop and voice pedal arranged for guitar.
G1 
E-------------|
B-------------|
G-77h9-9-----|
D--------9----|
A-------------|
E-------------|

Intro

G1-
G D/F# Em
G D/F# Em
G D/F# Em
D 

G2 (harmonica arr for guitar)
E-----------------|-------------------|------------------|-----------|
B--------5-7~~----|---------5-7-5-----|--------5-7-5-----|-----------|
G----4-7----------|----4-7--------7-4-|----4-7-------7---|---4-------|
D-----------------|-------------------|----------------7~|-5--7-5-4-5|
A-----------------|-------------------|------------------|-----------|
E-----------------|-------------------|------------------|-----------|

G3 
E-----------------|-------------------|------------------|-----------|
B-----------------|-------------------|------------------|-----------|
G-----------------|-------------------|------------------|-----------|
D--------2-4~~----|---------2-4-2-----|--------2-4-2---7~|-----------|
A----2-5----------|----2-5--------5-2-|----2-5-------5---|---2-------|
E-----------------|-------------------|----------------5~|-3--5-3-2-3|

Verse 1
(Play twice)

G1
G D/F# Em
G D/F# Em
G D/F# Em
D 

Leads
G2 (harmonica arr for guitar)

E-8-7~~---5~~-----|
B-----------------|
G-----------------|
D-----------------|
A-----------------|
E-----------------|

G3 
E-----------------|
B-----------------|
G-----------------|
D-5---4-----------|
A-----------------|
E-----------------|

Pre Chorus 1

G1
D Dsus4
D Dsus4
D Dsus4
D Dsus4

Lead

G2 (harmonica arr. for guitar)
E----7----8----10---12---15--14--19-17-15p14-------|
B---------------------------------------------15~~~|
G--------------------------------------------------|
D--------------------------------------------------|
A--------------------------------------------------|
E--------------------------------------------------|

Chorus 1

G1
G D/F# Em
G D/F# Em
G D/F# Em
D w/ lead 1

G D/F# Em w/ lead 2
G D/F# Em 
G D/F# Em
D w/ lead 1 

G D/F# Em w/ lead 3
G D/F# Em
G D/F# Em
D 

Leads for Chorus

Lead 1
G2 (harmonica arr for guitar)
E-8-7~~---5~~-----|
B-----------------|
G-----------------|
D-----------------|
A-----------------|
E-----------------|
G3 
E-----------------|
B-----------------|
G-----------------|
D-5---4-----------|
A-----------------|
E-----------------|

Lead 2
G2 (harmonica arr for guitar)
E-----------------|--------8-10-----|
B-8-----10-12-----|-12--------------|
G-----------------|-----------------|
D-----------------|-----------------|
A-----------------|-----------------|
E-----------------|-----------------|

Lead 3
G3
E-----0-----------|-----------------|4x
B---------3-------|-0---------------|
G-------------2---|-----------------|
D-----------------|-----------------|
A-----------------|-----------------|
E-----------------|-----------------|


Bridge 1

G1
G D/F# Em D
G D/F# Em D
G D/F# Em No Chord

G3
E-----------------|-----------------|x2
B-----------------|-----------------|
G-----7-------2---|-----4-----------|
D-5-------4-------|-2-------0-------|
A-----------------|-----------------|
E-----------------|-----------------|

E-----------------|--------|
B-----------------|--------|
G-----7-------2---|-----4/x|
D-5-------4-------|-2------|
A-----------------|--------|
E-----------------|--------|


Verse 2  Same as Verse 1

Pre Chorus 2  Same as Pre Chorus 1

Chorus 2  Play twice

G1
G D/F# Em
G D/F# Em
G D/F# Em
D 

G3
E-----0-----------|-----------------|3x
B---------3-------|-0---------------|
G-------------2---|-----------------|
D-----------------|-----------------|
A-----------------|-----------------|
E-----------------|-----------------|

G3
E-----0-----------|-----------------|-----------------|
B---------3-------|-0-----------5-7-|-7~~~------------|
G-------------2---|---------2-4-----|-----------------|
D-----------------|-----------------|-----------------|
A-----------------|-----------------|-----------------|
E-----------------|-----------------|-----------------|



Solo

G1
G D/F# Em D
G D/F# Em D

G3 (electric)
E----------------|----------------|----------------|-----------------|x2
B----7h8p7-------|----7h8p7-------|----7h8p7-------|---------7-------|
G------------9---|------------7---|------------9---|-----7-9---9-7~~-|
D----------------|----------------|----------------|-7-9-------------|
A----------------|----------------|----------------|-----------------|
E----------------|----------------|----------------|-----------------|

Bridge 2

G1
G D/F# Em D
G D/F# Em

G3 (Electric)
E----------------|----------------|----------------|-----------------|
B----7h8p7-------|----7h8p7-------|----7h8p7-------|---------7-------|
G------------9---|------------7---|------------9---|-----7-9---9-7~~-|
D----------------|----------------|----------------|-7-9-------------|
A----------------|----------------|----------------|-----------------|
E----------------|----------------|----------------|-----------------|

E----------------|----------------|
B----7h8p7-------|----7h8p7-------|
G------------9---|------------7---|
D----------------|----------------|
A----------------|----------------|
E----------------|----------------|

Outro

Solo over Outro

E-----0-----------|-----------------|4x
B---------3-------|-0---------------|
G-------------2---|-----------------|
D-----------------|-----------------|
A-----------------|-----------------|
E-----------------|-----------------|





Comments


Popular Zwan tabs & chords
Desire Chords
Yeah Chords
El Sol Tabs
Honestly Tabs
Ride A Black Zwan Tabs
The World Goes Round Tabs
Yeah Tabs
Come With Me Ukulele
El Sol Ukulele
Endless Summer Ukulele


Song lyrics



↑ Back to top | Tablatures and chords are parodies/interpretations of the original songs. You may use it for private study, scholarship, research or language learning purposes only
© 2014 AZChords.com Contact us | Privacy policy | DMCA | Add/correct tabs | Request tabs | Top 50 tabs