» » »

Confusion Chords (ver.1)

Artists:  A B C D E F G H I J K L M N O P Q R S T U V W X Y Z # 

Confusion Chords (ver.1)

Zutons
Rating:
4/5 (7 votes)

Hard to play? Try these video lessons and learn fast.
                This is a nice song.
For nice people.
So If you're not nice then shove off

intro/main riff
e|-----0--------0----|
B|---0---0----0---0--|
G|-2--------2--------|
D|-------------------|x4
A|-------------------|
E|-------------------|

e|-----0-------0-------0-------0--------3-------3-------3-------3---|
B|---0---0---0---0---0---0---0---0----0---0---0---0---0---0---0---0-|
G|-2-------2-------2-------2--------2-------2-------2-------2-------|
D|------------------------------------------------------------------|
A|------------------------------------------------------------------|
E|------------------------------------------------------------------|

e|-----2-------2-------2-------2--------0-------0-------0-------0---|
B|---3---3---3---3---3---3---3---3----0---0---0---0---0---0---0---0-|
G|-2-------2-------2-------2--------2-------2-------2-------2-------|
D|------------------------------------------------------------------|
A|------------------------------------------------------------------|
E|------------------------------------------------------------------|

Verse
A
It's funny how it tears me apart
     A7
Well first it breaks your hip then your heart
  D
I should've loved you better
         A

Chorus
E              Bm
    A
I'm sorry girl but I can't stay
  E                          Bm
Things have changed they're not the same
     A
Now I must walk the other waay

solo
(verse chords)

outro
A           A7
Home, Home, Home

this is 99% accurate so any glitch you do
find shouldn't affect the song at all

BIGDAVEDUDE182
            
Hard to play? Try these video lessons and learn fast. | Correct




comments powered by Disqus
↑ Back to top | Tablatures and chords are parodies/interpretations of the original songs. You may use it for private study, scholarship, research or language learning purposes only