>
 >
Confusion

Confusion Guitar Tabs

Zutons - Confusion chords, tabs, tablatures, lyrics

Guitar lessons | Add/correct | Request | Top 50 tabs Artists:  A B C D E F G H I J K L M N O P Q R S T U V W X Y Z 0-9

Confusion Guitar Tabs – Zutons

CD, Sheet music, Poster

Do you like Confusion? Share with your friends now
Bass TabsChordsTabsTabs v2Tabs v3Tabs v4Ukulele
Tuning: Standard

this is a cool addictive song that u cant help but nod ure head along to and sway

Verse
  A                   A7                D                   A
e|--0---0---0---0-----3---3---3---3------2---2---2---2-----0---0---0---0-----|
B|-2-2-2-2-2-2-2-2---2-2-2-2-2-2-2-2----3-3-3-3-3-3-3-3---2-2-2-2-2-2-2-2----|
G|2---2---2---2-----2---2---2---2------2---2---2---2-----2---2---2---2-------|
D|---------------------------------------------------------------------------|
A|---------------------------------------------------------------------------|
E|---------------------------------------------------------------------------|
  A                   A7                D                   A
e|--0---0---0---0-----3---3---3---3------2---2---2---2-----0---0---0---0-----|
B|-2-2-2-2-2-2-2-2---2-2-2-2-2-2-2-2----3-3-3-3-3-3-3-3---2-2-2-2-2-2-2-2----|
G|2---2---2---2-----2---2---2---2------2---2---2---2-----2---2---2---2-------|
D|---------------------------------------------------------------------------|
A|---------------------------------------------------------------------------|
E|---------------------------------------------------------------------------|

Chorus
   E          Bm        A
e|----------------------0---0---0---0----------------------------------------|
B|--0---0-----3---3----2-2-2-2-2-2-2-2---------------------------------------|
G|---1---1-----4---4--2---2---2---2------REPEAT------------------------------|
D|-2---2-----4---4-----------------------ONCE MORE---------------------------|
A|2---2-----2---2------------------------------------------------------------|
E|---------------------------------------------------------------------------|

Interlude
  A
e|--0---0---0---0---0---0---0---0---|
B|-2-2-2-2-2-2-2-2-2-2-2-2-2-2-2-2--|
G|2---2---2---2---2---2---2---2-----|
D|----------------------------------|
A|----------------------------------|
E|----------------------------------|
2nd guitar (electric)
e|---------------------------------------|
B|---------------------------------------|
G|--4/6--------4/6--------4/6-------4/6--|
D|---------------------------------------|
A|---------------------------------------|
E|---------------------------------------|

Repeat Verse
Repeat Chorus

Solo (folowing sax solo)
e|---------------------------------------------------------------------------|
B|-12b14b12-10--12b14b12--12b14b12-10--12b14b12-10----10--12-----------------|
G|-------------------------------------------------11------------------------|
D|---------------------------------------------------------------------------|
A|---------------------------------------------------------------------------|
E|---------------------------------------------------------------------------|

e|-17-17-17-15-15-15-14-14-14-12-12--10--10/12--10/12------------------------|
B|---------------------------------------------------------------------------|
G|---------------------------------------------------------------------------|
D|---------------------------------------------------------------------------|
A|---------------------------------------------------------------------------|
E|---------------------------------------------------------------------------|

Repeat Chorus

Outro
simply play arpeggio on the A chord, then strum the A7

thats it, i hope this is ok, any problems just email
cheers

| /  slide up
| \  slide down
| h  hammer-on
| p  pull-off
| b  bend
| ~  vibrato
| +  harmonic
| x  Mute note





Comments


Popular Zutons tabs & chords
Haunts Me Chords
Put A Little Aside Chords
Confusion 2 Tabs
Why Won't You Give Me Your Love? Tabs
You Will You Wont 1 Tabs
Dont Ever Think Too Much Ukulele
Havana Gang Brawl Ukulele
Put A Little Aside Ukulele
Rumblin Ramblin Ukulele
Why Wont You Give Me Your Love Ukulele


Song lyrics



↑ Back to top | Tablatures and chords are parodies/interpretations of the original songs. You may use it for private study, scholarship, research or language learning purposes only
© 2014 AZChords.com Contact us | Privacy policy | DMCA | Add/correct tabs | Request tabs | Top 50 tabs