>
 >
 >
Thirsty

Thirsty Guitar Tabs

Zox - Thirsty chords, tabs, tablatures, lyrics

Guitar lessons | Add/correct | Request | Top 50 tabs Artists:  A B C D E F G H I J K L M N O P Q R S T U V W X Y Z 0-9

Thirsty Guitar Tabs – Zox

CD, Sheet music, Poster

Do you like Thirsty? Share with your friends now
Bass TabsTabs
ZOx - THIRSTY


I didn\'t tab all the violin parts - but u should work with that. I\'m proud of me, this 
my 1st tab :D
This tab isn\'t completely right, but it\'s surely the best you will find.


INTRO x4

e|-------------------------------------------------------|
B|-8-8-7--10----------------8-8-7--10---12---12---10-----|
G|-9-9-9---9--9--9---9-9-9--9-9-9---9-/9---9----9----9---|
D|(9)---------9--10--7-7-7-------------------------------|
A|-------------------------------------------------------|
E|-------------------------------------------------------|


Violin enters 3rd time:
                                                                               1st
e|--------------8--7--11--12--7-------|-------------------|
B|-8-8-7--10--8------------------8--7-|-8--10-8-7-8-7-----|
G|------------------------------------|---------------9---|
D|------------------------------------|-------------------|
A|------------------------------------|-------------------|
E|------------------------------------|-------------------|

   2nd
e|-15--17-15-14-15-14--------|
B|--------------------15-17~~|
G|---------------------------|
D|---------------------------|
A|---------------------------|
E|---------------------------|


1st VERSE (the rythm is quite difficult ... upstroke/ fast reaggestyle)

e|-x-7-x-7-x-7-x-7-x-8-x-8-x-5-x-5-|-x-7-x-7-x-7-x-7-x-8-x-8-x-10-x-10-|
B|-x-7-x-7-x-7-x-7-x-8-x-8-x-5-x-5-|-x-7-x-7-x-7-x-7-x-8-x-8-x-10-x-10-|
G|-x(8)x---------------------------|-x(8)x-----------------------------|
D|---------------------------------|-----------------------------------|
A|---------------------------------|-----------------------------------|
E|---------------------------------|-----------------------------------|


e|-x-7-x-7-x-7-x-7-x-8-x-8-x-5-x-5-|-x-7-x-7-x-7-x-7-x-8-x-8-x-10-x-10-|
B|-x-7-x-7-x-7-x-7-x-8-x-8-x-5-x-5-|-x-7-x-7-x-7-x-7-x-8-x-8-x-10-x-10-|
G|-x(8)x---------------------------|-x(8)x-----------------------------|
D|---------------------------------|-----------------------------------|
A|---------------------------------|-----------------------------------|
E|---------------------------------|-----------------------------------|


e|-x-7-x-7-x-7-x-7-x-8-x-8-x-5-x-5-|-x-7-x-7-x-7-x-7-x-8-x-8-x-10-x-10-|
B|-x-7-x-7-x-7-x-7-x-8-x-8-x-5-x-5-|-x-7-x-7-x-7-x-7-x-8-x-8-x-10-x-10-|
G|-x(8)x---------------------------|-x(8)x-----------------------------|
D|---------------------------------|-----------------------------------|
A|---------------------------------|-----------------------------------|
E|---------------------------------|-----------------------------------|


e|-x-7-x-7-x-7-x-7-x-8-x-8-x-5-x-5-|-x-7777-x-7-x-7-x-7-x-8-x-8-x-10-x-10-|
B|-x-7-x-7-x-7-x-7-x-8-x-8-x-5-x-5-|-x-7777-x-7-x-7-x-7-x-8-x-8-x-10-x-10-|
G|-x(8)x---------------------------|-x------------------------------------|
D|---------------------------------|--------------------------------------|
A|---------------------------------|--------------------------------------|
E|---------------------------------|--------------------------------------|


CHORUS                                     use some funny deadnotes here

e|-7-7-7-7-------------8-8-8-8------------|x-7-7---7-7---7-7---7-7--|
B|-7-7-7-7-------------8-8-8-8------------|x-7-7---7-7---7-7---7-7--|
G|-8-8-8-8-------------9-9-9-9------------|x-8-8---8-8---8-8---8-8--|
D|-9-9-9-9------------10101010------------|x-9-9---9-9---9-9---9-9--|
A|-9-9-9-9------------10101010------------|x-9-9---9-9---9-9---9-9--|
E|-7-7-7-7-------------8-8-8-8------------|x-7-7---7-7---7-7---7-7--|


e|--8--8----8---10-10---10-|
B|--8--8----8---10-10---10-|
G|--9--9----9---11-11---11-|
D|-10-10---10---12-12---12-|
A|-10-10---10---12-12---12-|
E|--8--8----8---10-10---10-|


Intro x2 (+Violin)


2nd Verse

e|-x-7-x-7-x-7-x-7-x-8-x-8-x-5-x-5-|-------12~~~~~~~~-------------------|
B|-x-7-x-7-x-7-x-7-x-8-x-8-x-5-x-5-|-------12~~~~~~~~~------------------|
G|-x(8)x---------------------------|------------------------------------|
D|---------------------------------|------------------------14/---------|
A|---------------------------------|------------------------12/---------|
E|---------------------------------|------------------------------------|


e|-x-7-x-7-x-7-x-7-x-8-x-8-x-5-x-5-|-x-7-x-7-x-7-x-7-x-8-x-8-x-10-x-10-|
B|-x-7-x-7-x-7-x-7-x-8-x-8-x-5-x-5-|-x-7-x-7-x-7-x-7-x-8-x-8-x-10-x-10-|
G|-x(8)x---------------------------|-x(8)x-----------------------------|
D|---------------------------------|-----------------------------------|
A|---------------------------------|-----------------------------------|
E|---------------------------------|-----------------------------------|


e|-x-7-x-7-x-7-x-7-x-8-x-8-x-5-x-5-|-x-7-x-7-x-7-x-7-x-8-x-8-x-10-x-10-|
B|-x-7-x-7-x-7-x-7-x-8-x-8-x-5-x-5-|-x-7-x-7-x-7-x-7-x-8-x-8-x-10-x-10-|
G|-x(8)x---------------------------|-x(8)x-----------------------------|
D|---------------------------------|-----------------------------------|
A|---------------------------------|-----------------------------------|
E|---7-------7-------8-------5-----|---7-------7-------8-------10------|


e|-x-7-x-7-x-7-x-7-x-8-x-8-x-5-x-5-|-x-7777-x-7-x-7-x-7-x-8-x-8-x-10-x-10-|
B|-x-7-x-7-x-7-x-7-x-8-x-8-x-5-x-5-|-x-7777-x-7-x-7-x-7-x-8-x-8-x-10-x-10-|
G|-x(8)x---------------------------|-x------------------------------------|
D|---------------------------------|--------------------------------------|
A|---------------------------------|--------------------------------------|
E|---7-------7-------8-------5-----|---7----------7-------8-------10------|

CHORUS


strange Violin Pre Solo ... scratchy ...


SOLO (guitar & violin play nearly the same ... something like that)

e|-15-14h15p14h15p14h15h14-------------|
B|-------------------------17-15-17-12-|
G|-------------------------------------|
D|-------------------------------------|
A|-------------------------------------|
E|-------------------------------------|

e|-19-17-15--14h15p14----------------------|
B|--------------------15-12h15p12h15p12h15-|
G|-----------------------------------------|
D|-----------------------------------------|
A|-----------------------------------------|
E|-----------------------------------------|

e|-14h15p14h15p14h15h14----------------|-19----17----15----14------------|
B|-------------------------17-15-17-12-|-------------------------15/12---|
G|-------------------------------------|---------------------------------|
D|-------------------------------------|---------------------------------|
A|-------------------------------------|---------------------------------|
E|-------------------------------------|---------------------------------|


Beakdown = Intro x4 (Violin enters 3rd time)


Final Chorus

e|-7-7-7-7-------------8-8-8-8------------|
B|-7-7-7-7-------------8-8-8-8------------|
G|-8-8-8-8-------------9-9-9-9------------|
D|-9-9-9-9------------10101010------------|
A|-9-9-9-9------------10101010------------|
E|-7-7-7-7-------------8-8-8-8------------|


Two times

e|x-7-7---7-7---7-7---7-7--|--8--8----8---10-10---10-|
B|x-7-7---7-7---7-7---7-7--|--8--8----8---10-10---10-|
G|x-8-8---8-8---8-8---8-8--|--9--9----9---11-11---11-|
D|x-9-9---9-9---9-9---9-9--|-10-10---10---12-12---12-|
A|x-9-9---9-9---9-9---9-9--|-10-10---10---12-12---12-|
E|x-7-7---7-7---7-7---7-7--|--8--8----8---10-10---10-|


3rd time

e|x-7-7---7-7---7-7---7-7--|--8-8-8-8------10101010-|
B|x-7-7---7-7---7-7---7-7--|--8-8-8-8------10101010-|
G|x-8-8---8-8---8-8---8-8--|--9-9-9-9------11111111-|
D|x-9-9---9-9---9-9---9-9--|-10101010------12121212-|
A|x-9-9---9-9---9-9---9-9--|-10101010------12121212-|
E|x-7-7---7-7---7-7---7-7--|--8-8-8-8------10101010-|


|-7//--------|--------------------------|
|-7//--------|--------------------------|
|-8//--------|-4444-2222-0000-----------|
|-9//--------|----------------4444-2/14-|
|-9//--------|--------------------------|
|-7//--------|--------------------------|





Comments


Popular Zox tabs & chords
A Little More Time Chords
A Little More Time Tabs
Can't Look Down Tabs
Eventually 1 Tabs
Fallen Tabs
Delicious Ukulele
I Miss You Ukulele
Leaving Me Ukulele
Spectacle Girl Ukulele
Wishing For Your Mouth Ukulele


Song lyrics



↑ Back to top | Tablatures and chords are parodies/interpretations of the original songs. You may use it for private study, scholarship, research or language learning purposes only
© 2014 AZChords.com Contact us | Privacy policy | DMCA | Add/correct tabs | Request tabs | Top 50 tabs