» » »

Get Whatever You Want Tabs (ver.1)

Artists:  A B C D E F G H I J K L M N O P Q R S T U V W X Y Z # 

Get Whatever You Want Tabs (ver.1)

Zornik
Rating:
0/5 (0 votes)

Hard to play? Try these video lessons and learn fast.
                			     SONG NAME - Band Name

Tuning: DADGBe !!!

intro+vers1:dit is normaal alleen bas !
e|-------------------------------------|
B|-------------------------------------|
G|-------------------------------------|
D|-------------------------------------|      X6
A|-------------------------------------|
D|--14-14-14-12-12-14-14-14-12-12-12---|

e|-------------------------------------|
B|-------------------------------------|
G|-------------------------------------|
D|-------------------------------------|      X2
A|---10-------------10-----------------|
D|------12-12-12-12----12-12-12-12-12--|

e|-------------------------------------|
B|-------------------------------------|
G|-------------------------------------|
D|-------------------------------------|      X2
A|-------------------------------------|
D|--12-12-12-10-10-12-12-12-10-10-10---|

e|--------------------------------------------|
B|--------------------------------------------|
G|--------------------------------------------|
D|--------------------------------------------|
A|--------------------------------------------|
D|-10-10-10-10-10-10-10-10-10-10-10-9-9-9-9---|
doe dit een paar keer (maar doe dan het eerste motiefke maar 2x !) de vers eindigt op 
12

chorus(Koen Buize):
e|-------------------|
B|-------------------|
G|-----------5---7---|
D|---2---5---5---7---|   X2
A|---2---5---3---5---|
D|---2---5-----------|
hoeveel keer hij de akkoorden speelt weet ik niet !

chorus(andere gitarist):
e|-----7-----7-----7-----10-----10-----------------------------------------|
B|---7---8-7---8-7---7-8----7-8----7-8-7-8-10-7-8-10-7-8-77777777777-8-7---|
G|-------------------------------------------------------------------------|
D|-------------------------------------------------------------------------|
A|-------------------------------------------------------------------------|
D|-------------------------------------------------------------------------|

e|----7-----7-----7-----10-----10-------------------------------------------|
B|--7---8-7---8-7---7-8----7-8----7-8-7-8-10-7-8-10-7-8-77777777777-8-7-5~--|
G|--------------------------------------------------------------------------|
D|--------------------------------------------------------------------------|
A|--------------------------------------------------------------------------|
D|--------------------------------------------------------------------------|

vers2:
e|---0-0-0-0-0-0-0-0-3-3-3-3-3-3-3-3-----------------------------------|
B|---0-0-0-0-0-0-0-0-0-0-0-0-0-0-0-0-3-3-3-3-3-3-3-3-1-1-1-1-1-1-1-1---|
G|-----------------------------------2-2-2-2-2-2-2-2-0-0-0-0-0-0-0-0---|
D|---------------------------------------------------------------------|
A|---------------------------------------------------------------------|
D|---------------------------------------------------------------------|

chorus Koen Buize:
e|-------------------|
B|-------------------|
G|-----------5---7---|
D|---2---5---5---7---|   X4
A|---2---5---3---5---|
D|---2---5-----------|

chorus(andere gitarist):
e|-----7-----7-----7-----10-----10-----------------------------------------|
B|---7---8-7---8-7---7-8----7-8----7-8-7-8-10-7-8-10-7-8-77777777777-8-7---|
G|-------------------------------------------------------------------------|
D|-------------------------------------------------------------------------|  X3
A|-------------------------------------------------------------------------|
D|-------------------------------------------------------------------------|

e|----7-----7-----7-----10-----10-------------------------------------------|
B|--7---8-7---8-7---7-8----7-8----7-8-7-8-10-7-8-10-7-8-77777777777-8-7-5~--|
G|--------------------------------------------------------------------------|
D|--------------------------------------------------------------------------|
A|--------------------------------------------------------------------------|
D|--------------------------------------------------------------------------|

bridge Koen Buize:(eerst alleen drum en bas)
e|--------------------------------------|
B|--------------------------------------|
G|--------------------------------------|
D|--------------------------------------| doorheen heel de bridge
A|--------------------------------------|
D|---14-14-14-12-12-14-14-14-12-12-12---|

de andere gitarist valt iets na Koen in
e|--------------------------------------------|
B|--------------------------------------------|
G|--------------------------------------------|
D|---14-14-14-12-12-14-14-14-12-12-12---------|    X ?
A|--------------------------------------------|
D|--------------------------------------------|

e|-----------------------------------------------------------------------|
B|-----------------------------------------------------------------------|
G|---12-12-12-11-11-12-12-12-11-11-11-16-16-14-14-14-16-16-16-14-14-14---|
D|-----------------------------------------------------------------------| X1
A|-----------------------------------------------------------------------|
D|-----------------------------------------------------------------------|

chorus Koen Buize:
e|-------------------|
B|-------------------|
G|-----------5---7---|
D|---2---5---5---7---|   X4
A|---2---5---3---5---|
D|---2---5-----------|

chorus(andere gitarist):
e|-----7-----7-----7-----10-----10-----------------------------------------|
B|---7---8-7---8-7---7-8----7-8----7-8-7-8-10-7-8-10-7-8-77777777777-8-7---|
G|-------------------------------------------------------------------------|
D|-------------------------------------------------------------------------|  X3
A|-------------------------------------------------------------------------|
D|-------------------------------------------------------------------------|

e|----7-----7-----7-----10-----10-------------------------------------------|
B|--7---8-7---8-7---7-8----7-8----7-8-7-8-10-7-8-10-7-8-77777777777-8-7-5~--|
G|--------------------------------------------------------------------------|
D|--------------------------------------------------------------------------|
A|--------------------------------------------------------------------------|
D|--------------------------------------------------------------------------|

outro:
e|--------------------------------------|
B|--------------------------------------|
G|--------------------------------------|
D|--------------------------------------| doorheen heel de outro en eindig met 14\2
A|--------------------------------------|
D|---14-14-14-12-12-14-14-14-12-12-12---|

bekijk ook nog eens m'n tab van black hope shot down die heb ik verbeterd en ik heb de 
getabt !


| /  slide up
| \  slide down
| h  hammer-on
| p  pull-off
| ~  vibrato
| +  harmonic
| x  Mute note
            
Hard to play? Try these video lessons and learn fast. | Correct




comments powered by Disqus
↑ Back to top | Tablatures and chords are parodies/interpretations of the original songs. You may use it for private study, scholarship, research or language learning purposes only