» » »

Zombies, How We Were Before Chords (ver.1)

Artists:  A B C D E F G H I J K L M N O P Q R S T U V W X Y Z # 

How We Were Before Chords (ver.1)

Zombies Tabs
Rating:
0/5 (0 votes)
How We Were Before lessons Tabs too difficult? Try these video lessons and learn fast
                
Tuning:Standard

Intro:
               D              D/A      D              D/A         
e |--------|------------5-----------|------------5-----------|
B |--------|---------7-----7--------|---------7-----7--------|
G |--------|------7-----------------|------7-----------------|
D |--------|---0--------------------|---0--------------------|
A |--0--0--|------------------0--0--|------------------0--0--|
E |--------|------------------------|------------------------|


       D          Dmaj7              D7                G
The party's over, dawn-- breaking gradually through on us,     
           Gm                D        A  A     A  D 
Shows us...how we were be - fore---!


 D                  Dmaj7                    D7             G
Why have we waited?  Been so lonely, con - tinually long to be... again,     
Gm                    D        A  A     A  D 
    How we were be - fore---!


                G             Gm                   D
And as you've waited for me,      we will be to - gether,
    D7          G                  Gm               A    A7
And as you've waited for me, I'll leave you again never, ever!


D          Dmaj7              D7                G
So remember we were lucky, mercifully turned to be... again,    
Gm                    D        A  A     A  D 
    How we were be - fore---!


           D                 Dmaj7                   D7     Am9
e|-----|---5--5--h7--5------|--5---5--h7---5-------|--5--5--h7--5--h7--5--|
B|-----|---7-----------7----|--7-------7------7----|--7------5------5-----|
G|-----|---7-------------7--|--6-------6--------6--|--5------5------5-----|
D|-----|---0----------------|--0-------0-----------|--7------7------7-----|
A|--0--|--------------------|----------------------|--5-------------------|
E|-----|--------------------|----------------------|----------------------|

    G    Gadd9 G           Gm  Gm9  Gm     D                  A        D
e|--3--3--h5---3-------|----3--5--5--3--|--2--2--3--2--0---|--0-0---0--2--|
B|--3------3------5----|----3--3--3-----|--3--3----------3-|--2-2---2--3--|
G|--4------4--------4--|----3--3--3-----|--2--2------------|--2-2---2--3--|
D|--5------5-----------|----5--5--5-----|--0--0------------|--2-2---2--0--|
A|---------------------|----5--5--5-----|------------------|--0-0---0-----|
E|---------------------|--3----3--3-----|------------------|--------------|


                G             Gm                   D
And as you've waited for me,      we will be to - gether,
    D7          G                  Gm               A    A7
And as you've waited for me, I'll leave you again never, ever!


D          Dmaj7              D7                G
So remember we were lucky, mercifully turned to be... again,    
Gm                    D        A  A     A  D 
    How we were be - fore---!

************************************

D         =  x00775  or  xx0232
Dmaj7     =  xx0222  or  xx0675
D7        =  xx0212  or  x57575
G         =  355433
Gm        =  355333
A         =  x02220  or  577655
Am9       =  x77557
Gadd9     =  xx5435
Gm9       =  355335
            
Submit corrections

comments powered by Disqus
↑ Back to top | Zombies Chords for How We Were Before. Lyrics for acoustic guitar and electric guitar. Tablatures and chords are parodies/interpretations of the original songs. You may use it for private study, scholarship, research or language learning purposes only