» » »

Zombies, Care Of Cell Bass tabs (ver.1)

Artists:  A B C D E F G H I J K L M N O P Q R S T U V W X Y Z # 

Care Of Cell Bass tabs (ver.1)

Zombies Tabs
 Rating:
4/5 (4 votes)
Care Of Cell lessons Tabs too difficult? Try these video lessons and learn fast
                "(4)
The Zombies
Care of Cell 44

Verse:

Good morning to you, I hope you're feeling better, baby
Thinking of me while you are far away

Bass comes in:
G-------------------------|
D--------7------------5-7-|
A------7----7-5---7-9-----|
E--5----------------------|

(From here on, repeat this bassline for all verses:)
And counting the days until they set you free again
G-----------------------------------|
D--5--4--2--0-----------------0-2-4-|
A--------------3--2--0---0-3--------|
E-----------------------------------|

Writing this letter, hoping you're OK
G------------------------------------|
D-5--4--3--3--------7------------5-7-|
A-----------------7----7-5---7-9-----|
E-------------5----------------------|

(Humming)

Chorus:
Feels so good, you're coming home soon
G-----------------------------|
D--5--4--2--0--0-2------------|
A------------------5--3--2--0-|
E-----------------------------|


Bridge:
We'll walk in the way we used to walk, and it could be so nice
G---------------------|
D-5---5-5---5-5---5-5-|
A---------------------|
E---------------------|

We'll talk in the way we used to talk and it could be so nice
G---------------------------------------|
D-5---5-5---5-5--------7------------5-7-|
A--------------------7----7-5---7-9-----|
E----------------5----------------------|

Humming part, with bass:
G------------------------|
D-5--5--5--5--5--5--5--5-|
A------------------------|
E------------------------|

Last note:
G---
D-5-
A---
E---


Awesome song, awesome band...awesome tab!(I hope! :-p)
"            
Submit corrections

comments powered by Disqus
↑ Back to top | Zombies Bass for Care Of Cell. Lyrics for acoustic guitar and electric guitar. Tablatures and chords are parodies/interpretations of the original songs. You may use it for private study, scholarship, research or language learning purposes only