» » »

Zombie Ghost Train, Rip Tabs (ver.1)

Artists:  A B C D E F G H I J K L M N O P Q R S T U V W X Y Z # 

Rip Tabs (ver.1)

Zombie Ghost Train Tabs
 Rating:
4.5/5 (8 votes)
Rip lessons Tabs too difficult? Try these video lessons and learn fast
                			     R.I.P. - zombie ghost train

Tuning:standerd
e,a,d,g,b,e

this is R.I.P. an amazing song by zombie ghost train,i noticed that the other tab wasent
accurate so this is my version which i think is pretty dead on,its a fun song and
great enjoy!


this is the opening riff with the bass, palm mute it

e|--------------------------------------------------------------------------|

B|-----------------------------------------------------------------------------|
G|-----------------------------------------------------------------------------|
D|-----------------------------------------------------------------------------|
A|-----------------------------------------------------------------------------|
E|-------5-5---8-8-5--5-5--8-8-5--5-5--8-8-5--8-8-5-8-8-5----------------------|

this is the lead riff,do the first 2 palm muted and the last 2 tremelo

e|-----------------------------------------------------------------------------|
B|-----------------------------------------------------------------------------|
G|-----------------------------------------------------------------------------|
D|-----------------------------------------------------------------------------|
A|-0-0--7-7--8-8--5-5--7-7--3-3--5-5--3--2---x4--------------------------------|
E|-----------------------------------------------------------------------------|

this is the verse,its the same verse played through the whole song exepct for the bridge

verse:
e|---------------------------------------8-8-8-8-------------------------------|
B|---------------------------------------8-8-8-8-------------------------------|
G|-----------------------------------------------------------------------------|
D|-7--x---7--7--x--7-7-x-7-7-x-7-7-x-7-7-x-7-----------------------------------|
A|-7---x---7--7--x--7-7-x-7-7-x-7-7-x-7-7-x-7----------------------------------|
E|-5----x---5--5--x--5-5-x-5-5-x-5-5-x-5-5-x-5---------------------------------|

e|--------------------------------------------------------------------------|
B|--------------------------------------------------------------------------|
G|---------------------------------------------8-8-8-8----------------------|
D|-7--x---7--7--x--7-7-x-7-7-x-7-7-x-7-7-x-7---8-8-8-8----------------------|
A|-7--x----7--7--x--7-7-x-7-7-x-7-7-x-7-7-x-7-------------------------------|
E|-5---x----5--5--x--5-5-x-5-5-x-5-5-x-5-5-x-5------------------------------|


chorus:
e|-----------------------------------------------------------------------------|
B|-----------------------------------------------------------------------------|
G|-----------------------------------------------------------------------------|
D|-7----------10----------3----------5-----------7-----------10----------------|
A|-7----------10----------3----------5-----------7-----------10----------------|
E|-5--=X7=----8--=X7=-----1--=X7=----3--=X7=---5--=X7=----8--=X7=--------------|


e|-----------------------------------------------------------------------------|
B|-----------------------------------------------------------------------------|
G|-----------------------------------------------------------------------------|
D|-5----------4----------------------------------------------------------------|
A|-5----------4----------------------------------------------------------------|
E|-3--=X7=----2--=X7=----------------------------------------------------------|

back to opening riff:
e|-----------------------------------------------------------------------------|
B|-----------------------------------------------------------------------------|
G|-----------------------------------------------------------------------------|
D|-----------------------------------------------------------------------------|
A|-----------------------------------------------------------------------------|
E|-------5-5---8-8-5--5-5--8-8-5--5-5--8-8-5--8-8-5-8-8-5----------------------|

back to verse


breakdown:
this riff is played through the whole breakdown,after doing this two times the other 
comes over it
e|-----------------------------------------------------------------------------|
B|-----------------------------------------------------------------------------|
G|-----------------------------------------------------------------------------|
D|-----------------------------------------------------------------------------|
A|-----------------------------------------------------------------------------|
E|-0--0-3-1-0------------------------------------------------------------------|

with this lick over it,you do this the rest of the way through the breakdown

e|-----------------------------------------------------------------------------|
B|-----------------------------------------------------------------------------|
G|-4---5-7-5-4-----------------------------------------------------------------|
D|-----------------------------------------------------------------------------|
A|-----------------------------------------------------------------------------|
E|-----------------------------------------------------------------------------|

then back to chorus

bridge:
e|--------------------5---------------------------------------------------------|
B|--------------------5---------------------------------------------------------|
G|--------------------5---------------------------------------------------------|
D|-7------------------5---------------------------------------------------------|
A|-7------------------5---------------------------------------------------------|
E|-5---=let ring=-----5--=let ring=---------------------------------------------|

back to opening lead but only twice
e|-----------------------------------------------------------------------------|
B|-----------------------------------------------------------------------------|
G|-----------------------------------------------------------------------------|
D|-----------------------------------------------------------------------------|
A|-0-0--7-7--8-8--5-5--7-7--3-3--5-5--3--2---x2--------------------------------|
E|-----------------------------------------------------------------------------|


this is the third verse just one whole step up:
e|-------------------------------------------------10-10-10-10----------------|
B|-------------------------------------------------10-10-10-10----------------|
G|-------------------------------------------------10-10-10-10----------------|
D|-9---x--9-9-x--9-9x---9-9-x--9-9x---9-9-x--9-9x-----------------------------|
A|-9--x----9-9-x--9-9x---9-9-x--9-9x---9-9-x--9-9x----------------------------|
E|-7-x------7-7-x--7-7x---7-7-x--7-7x---7-7-x--7-7x---------------------------|


e|----------------------------------------------------------------------------|
B|--------------------------------------------------10-10-10-10---------------|
G|--------------------------------------------------10-10-10-10---------------|
D|-9---x--9-9-x--9-9-x--9-9-x--9-9-x--9-9-x--9-9x---10-10-10-10---------------|
A|-9--x----9-9-x--9-9-x--9-9-x--9-9-x--9-9-x--9-9x----------------------------|
E|-7-x------7-7-x--7-7-x--7-7-x--7-7-x--7-7-x--7-7x---------------------------|

then back to the chorus for three more times,theres some diffrent rythms in the last
choruses but there not hard at all to figure out.

thanks and enjoy!
            
Submit corrections

comments powered by Disqus
↑ Back to top | Zombie Ghost Train Tabs for Rip. Lyrics for acoustic guitar and electric guitar. Tablatures and chords are parodies/interpretations of the original songs. You may use it for private study, scholarship, research or language learning purposes only