>
 >
 >
Love

Love Bass Tabs

Zoe - Love chords, tabs, tablatures, lyrics

Guitar lessons | Add/correct | Request | Top 50 tabs Artists:  A B C D E F G H I J K L M N O P Q R S T U V W X Y Z 0-9

Love Bass Tabs – Zoe

CD, Sheet music, Poster

Do you like Love? Share with your friends now
Bass TabsBass Tabs v2ChordsUkulele
Rola: Ficción
Banda: Los Daniels
Álbum: Se Renta Cuarto Para Señoritas
Afinación: Estándar (EADG)


G|-----------------------------------------------|
D|-----------6------------------10---------------|
A|-------6-------6---------10--------10----------|
E|---4-----------------8------------------0h8-7--|

-----------------------------------------------------|
-----9-7-----------------------------6-6-----------5-|
-9--9----9-7-6-------------------6-------6-5-4-3-----|
-----------------6---5-----5\4-----------------------|


G|--------5--------------------------------------------|
D|-------5----8-5-----------------------------------8--|
A|-------------------8-6--------9---------------6------|
E|------------------------6-7--------0h7-8-9-10--------|

-------------------------------------|
-----8-------------6-----------------|
-6-------0h6---4-------4-2-1-------4-|
-----------------------------4-2-----|

G|----------------------------------------------|
D|---------------6-------6-------------4--------|
A|-------1-2-4-------4-------0h4---2-------2----|
E|-0h2-4----------------------------------------|

-----------------------------------------6-------------|
-----------------------------6----------6-6------6-----|
---2-------4---------1-2-4-------4-----------4-------4-|
--2--4-2-------0h2-4-----------------------------------|


G|---------------|---------------------------------------|
D|---------------|---------------------------------------|
A|-/161616161616-|-2-2-2-2---------4-4-4-4-2h4-4-4-2h4-2-|
E|---------------|---------2-2-2-2-----------------------|

--------------------------------------------------|
--------------------------------------------------|
2-2-2---------4-4-2h4-4-4-2h4-4-4-2--2----------4-|
------2-2-2-2---------------------------2--2------|



G|--------------------------------------------------|
D|-----------6------------------10------------------|
A|-------6-------6---------10--------10-----------9-|
E|---4-----------------8------------------0h8-7-----|

---------------------------------------------------|
--9-7------------------------------6-6-----------5-|
-9----9-7-6--------------------6-------6-5-4-3-----|
--------------6---5-----5\\4-----------------------|

G|--------5----------------------------------------------------|
D|-------5----8-5----------------------------------------------|
A|----------------8-6--5-----9---------------6----6---6-6-6-6--|
E|-----------------------7--------0h7-8-9-10----6---6----------|

G|--------------------------------------------------------------------------------------------|
D|-----6-------6-------------4-------4--2-----------------------------------6--------6------6-|
A|-4-------4-------0h4---2-------2--------4-2-----4---------1-2-4-------4------4--4------4----|
E|--------------------------------------------2-------0h2-4---------4-----------4-------------|

G|---------------|     G|---------------------------------|
D|---------------|     D|---------------------------------|
A|-/161616161616-|     A|-2-2-2-2---------4-4-4-4-4-4-4-4-|
E|---------------|     E|---------2-2-2-2-----------------| x2

G|---------------------------------------------------|
D|---------------------------------------------------|
A|-2-2-2-2----------------------16-16--14----14--16\-|
E|---------2-2-2-2-9-9-9-14--16-----------16---------|

G|-----------------------------------------------|
D|-----------------------------------------------|
A|-2-2-2-2---------4-4-4-4/11111111111111111111\-|
E|---------2-2-2-2-------------------------------|

G|---------------------------------|
D|---------------------------------|
A|-2-2-2-2---------4-4-4-4-4-4-4-4-|
E|---------2-2-2-2-----------------| x6 escuchen la rola para las variaciones en esta parte

G|---------------------------------------------------|
D|---------------------------------------------------|
A|-2-2-2-2---------2-2-2-2---------2-2-2-2---------4-|
E|---------2-2-2-2---------2-2-2-2---------2-2-2-2---|





Comments


Popular Zoe tabs & chords
Va Lactea 2 Bass Tabs
Labios Rotos Chords
Love Can Change So Much Chords
Te Sone Chords
No Me Destruyas Tabs
Reptilectric Tabs
Dead Ukulele
Love Ukulele
Poli Ukulele
Solo Ukulele


Song lyrics



↑ Back to top | Tablatures and chords are parodies/interpretations of the original songs. You may use it for private study, scholarship, research or language learning purposes only
© 2014 AZChords.com Contact us | Privacy policy | DMCA | Add/correct tabs | Request tabs | Top 50 tabs