» » »

Ziggy Marley, Drive Tabs (ver.1)

Artists:  A B C D E F G H I J K L M N O P Q R S T U V W X Y Z # 

Drive Tabs (ver.1)

Ziggy Marley Tabs
Rating:
5/5 (1 vote)
Drive lessons Tabs too difficult? Try these video lessons and learn fast
                Song          :  Drive
Artist        :  Ziggy Marley
Album         :  50 First Date


:::::::::::::::::::::::::::::::::::::::::::::::::::::::::::::::::::::::::::::

Intro: C--CM7--C6--C--;(2x)

C                        CM7     C
 Who's gonna tell you when it's too late
                     CM7            C
 Who's gonna tell you things aren't so great

Refrain:
Am                    D7         Am           D7
 You know you can't go on thinking nothing's wrong
C                      CM7     C
 Who's gonna drive you home tonight

C                     CM7      C
 Who's gonna pick you up when you fall 
                    CM7      C
 Who's gonna hang it up when you call
C                  CM7         C 
 Who's gonna pay attention to your dreams
                        CM7       C
 Who's gonna plug their ear when you scream

Refrain:
Am           D7         Am           D7
 You can't go on thinking nothing's wrong
C                      CM7     C
 Who's gonna drive you home tonight

Interlude: Am-C-Am-Em-F-C-G7-;

C                      CM7       C
 Who's gonna hold you down when you shake
                  CM7          C
 Who's gonna come around when you break

Refrain:
Am                  D7         Am           D7
 I said you can't go on thinking nothing's wrong
C                      CM7     C 
 Who's gonna drive you home tonight
Am           D7              Am                D7
 You can't go on just thinking that nothing is wrong
C                      CM7     C
 Who's gonna drive you home tonight

Outro: C--;

:::::::::::::::::::::::::::::::::::::::::::::::::::::::::::::::::::::::::::::

    C     CM7     Am     D7     Em     F      G
e|-----||-----||-----||--2--||--3--||--7--||--1--|
B|--5--||--5--||--1--||--1--||--5--||--8--||--0--|
G|--5--||--4--||--2--||--2--||--4--||--7--||--0--|
D|--5--||--5--||--2--||--0--||--2--||--3--||--0--|
A|--3--||--3--||--0--||-----||-----||-----||--2--|
E|-----||-----||-----||-----||-----||-----||--3--|

:::::::::::::::::::::::::::::::::::::::::::::::::::::::::::::::::::::::::::::

Intro:
e|--------------------------------|
B|-1----0----1--------------------|
G|-0----0----0--------------------|
D|-2----2----2--------------------|
A|--------------------------------|
E|--------------------------------|
 |                                |
e|-------------0---0-----0---0----|
B|-----------1---2---1-----2---1--|
G|--------------------------------|(2x)
D|--------------------------------|
A|--------------------------------|
E|--------------------------------|

Verse:
e|------------------------0--------------|
B|-1----0----1-------3----1----0----1----|
G|-0----0----0-------0----0----0----0----|
D|-2----2----2-------2----2----2----2----|
A|---------------------------------------|
E|---------------------------------------|

Chorus:
e|-0----2----0----2-----------------------------------|
B|-1----1----1----1----1----0----1--------------------|
G|-2----2----2----2----0----0----0--------------------|
D|-2----0----2----0----2----2----2--------------------|
A|-0---------0----------------------------------------|
E|----------------------------------------------------|
 |                                                    |
e|---------------------------------0---0-----0---0----|
B|-------------------------------1---2---1-----2---1--|
G|----------------------------------------------------|(2x)
D|----------------------------------------------------|
A|----------------------------------------------------|
E|----------------------------------------------------|

Verse:
e|------------------------0---------------|
B|-1----0----1-------3----1----0----1-----|
G|-0----0----0-------0----0----0----0-----|
D|-2----2----2-------2----2----2----2-----|
A|----------------------------------------|
E|----------------------------------------|

e|------------------------0---------------|
B|-1----0----1-------3----1----0----1-----|
G|-0----0----0-------0----0----0----0-----|
D|-2----2----2-------2----2----2----2-----|
A|----------------------------------------|
E|----------------------------------------|

Chorus:
e|-0----2----0----2-----------------------------------|
B|-1----1----1----1----1----0----1--------------------|
G|-2----2----2----2----0----0----0--------------------|
D|-2----0----2----0----2----2----2--------------------|
A|-0---------0----------------------------------------|
E|----------------------------------------------------|
 |                                                    |
e|---------------------------------0---0-----0---0----|
B|-------------------------------1---2---1-----2---1--|
G|----------------------------------------------------|
D|----------------------------------------------------|
A|----------------------------------------------------|
E|----------------------------------------------------|

Interlude:

e|-8---------10-12------10-----8----------10--------12-----|
B|---------------------------------------------------------|
G|-5----------7--9-------7-----5-----------7---------9-----|
D|---------------------------------------------------------|
A|---------------------------------------------------------|
E|---------------------------------------------------------|
 |                                                         |
e|--------------12-8h10-10~--------------------------------|
B|-8h10-8/10-10----------------8-8h10-8-8h10-8-8h10-8------|
G|---------------------------------------------------------|
D|---------------------------------------------------------|
A|---------------------------------------------------------|
E|---------------------------------------------------------|

e|-7-------------8-------10------12---------8-------|
B|--------------------------------------------------|
G|-4-------------5--------7-------9---------5-------|
D|--------------------------------------------------|
A|--------------------------------------------------|
E|--------------------------------------------------|
 |                                                  |
e|--------------------------------------------------|
B|-----8/10p9---------------------------------------|
G|-7-9-------------------7---7/9-7/9-7-5-5/7-5------|
D|-------------------5-7----------------------------|
A|---------------5-7--------------------------------|
E|--------------------------------------------------|

e|-7--------8----10----8----|
B|--------------------------|
G|-4--------5-----7----5----|
D|--------------------------|
A|--------------------------|
E|--------------------------|
 |                          |
e|--------------------------|
B|---------------8---8------|
G|-5--4-5-7-5------7---9~---|
D|--------------------------|
A|--------------------------|
E|--------------------------|

Verse:
e|------------------------0---------------|
B|-1----0----1-------3----1----0----1-----|
G|-0----0----0-------0----0----0----0-----|
D|-2----2----2-------2----2----2----2-----|
A|----------------------------------------|
E|----------------------------------------|
 |                                        |
e|-------------------12^------------------|
B|----------------------------------------|
G|------------------------12^-------------|
D|----------------------------------------|
A|----------------------------------------|
E|----------------------------------------|

Chorus:
e|-0----2----0----2-----------------------------------|
B|-1----1----1----1----1----0----1--------------------|
G|-2----2----2----2----0----0----0--------------------|
D|-2----0----2----0----2----2----2--------------------|
A|-0---------0----------------------------------------|
E|----------------------------------------------------|
 |                                                    |
e|---------------------------------0---0-----0---0----|
B|-------------------------------1---2---1-----2---1--|
G|----------------------------------------------------|
D|----------------------------------------------------|
A|----------------------------------------------------|
E|----------------------------------------------------|

e|-0----2----0----2-----------------------------------|
B|-1----1----1----1----1----0----1--------------------|
G|-2----2----2----2----0----0----0--------------------|
D|-2----0----2----0----2----2----2--------------------|
A|-0---------0----------------------------------------|
E|----------------------------------------------------|
 |                                                    |
e|---------------------------------0---0-----0---0----|
B|-------------------------------1---2---1-----2---1--|
G|----------------------------------------------------|(2x)
D|----------------------------------------------------|
A|----------------------------------------------------|
E|----------------------------------------------------|

Outro:
e|-------------------------------------------|
B|-1----1----1----1----1----1----1----1------|
G|-0----0----0----0----0----0----0----0------|
D|-2----2----2----2----2----2----2----2------|
A|-------------------------------------------|
E|-------------------------------------------|
 |                                           |
e|------------------0---0-----0---0----------|
B|----------------1---2---1-----2---1--------|
G|-------------------------------------------|
D|-------------------------------------------|
A|-------------------------------------------|
E|-------------------------------------------|
            

comments powered by Disqus
↑ Back to top | Ziggy Marley Tabs for Drive. Lyrics for acoustic guitar and electric guitar. Tablatures and chords are parodies/interpretations of the original songs. You may use it for private study, scholarship, research or language learning purposes only