» » »

Ziggy Marley, Beach In Hawaii Tabs (ver.1)

Artists:  A B C D E F G H I J K L M N O P Q R S T U V W X Y Z # 

Beach In Hawaii Tabs (ver.1)

Ziggy Marley Tabs
 Rating:
4/5 (5 votes)
Beach In Hawaii lessons Tabs too difficult? Try these video lessons and learn fast
                
Tuning: Standard

I just bought Ziggys new album 'Love is My Religion' yesterday and I was listening 
the tracks and found this song and I thought I'd tab it out... Please rate!

Guitar One


Intro and verses

                                     On the beach in Hawaii
e|---------------------------------------------------------------------------|
B|----4--4--4--4--2--2--2--2--5--5--5--5--4--4--4--4-------------------------|
G|----4--4--4--4--3--3--3--3--6--6--6--6--4--4--4--4-------------------------|
D|----6--6--6--6--4--4--4--4--6--6--6--6--6--6--6--6-------------------------|
A|----------------------------x--7--7--7-------------------------------------|
E|---------------------------------------------------------------------------|
                                                     Hey!
e|---------------------------------------------------------------------------|
B|----4--4--4--4--2--2--2--2--5--5--5--5--4--4--4--4-------------------------|
G|----4--4--4--4--3--3--3--3--6--6--6--6--4--4--4--4-------------------------|
D|----6--6--6--6--4--4--4--4--6--6--6--6--6--6--6--6-------------------------|
A|----------------------------x--7--7--7-------------------------------------|
E|---------------------------------------------------------------------------|
    I wish you were here with me, walking on the beach in Hawaii
e|---------------------------------------------------------------------------|
B|----4--4--4--4--2--2--2--2--5--5--5--5--4--4--4--4-------------------------|
G|----4--4--4--4--3--3--3--3--6--6--6--6--4--4--4--4-------------------------|
D|----6--6--6--6--4--4--4--4--6--6--6--6--6--6--6--6-------------------------|
A|----------------------------x--7--7--7-------------------------------------|
E|---------------------------------------------------------------------------|
    Playin' on the golden sand, lookin' at the ocean now I understand
e|---------------------------------------------------------------------------|
B|----4--4--4--4--2--2--2--2--5--5--5--5--4--4--4--4-------------------------|
G|----4--4--4--4--3--3--3--3--6--6--6--6--4--4--4--4-------------------------|
D|----6--6--6--6--4--4--4--4--6--6--6--6--6--6--6--6-------------------------|
A|----------------------------x--7--7--7-------------------------------------|
E|---------------------------------------------------------------------------|
     Love is like the open sea, and I wish you were here with me
e|---------------------------------------------------------------------------|
B|----4--4--4--4--2--2--2--2--5--5--5--5--4--4--4--4-------------------------|
G|----4--4--4--4--3--3--3--3--6--6--6--6--4--4--4--4-------------------------|
D|----6--6--6--6--4--4--4--4--6--6--6--6--6--6--6--6-------------------------|
A|----------------------------x--7--7--7-------------------------------------|
E|---------------------------------------------------------------------------|

 Guitar One                            On the beach in Hawaii
e|---------------------------------------------------------------------------|
B|----4--4--4--4--2--2--2--2--5--5--5--5--4--4--4--4-------------------------|
G|----4--4--4--4--3--3--3--3--6--6--6--6--4--4--4--4-------------------------|
D|----6--6--6--6--4--4--4--4--6--6--6--6--6--6--6--6-------------------------|
A|----------------------------x--7--7--7-------------------------------------|
E|---------------------------------------------------------------------------|
  Guitar 2 Main Riff x2
e|-----------------------------------------------------------------------------|
B|---16-x8--------14-x8-------12-x16-------------------------------------------|
G|---16-x8--------15-x8-------13-x16-------------------------------------------|
D|-----------------------------------------------------------------------------|
A|-----------------------------------------------------------------------------|
E|-----------------------------------------------------------------------------|


 Guitar One Main Riff Throughout entire song

Since you've been gone away, I think about you everyday
don't you know I miss you much, and you know I need your touch
I'm on a rocky cliff, oh I wish you were hear with me

Guitar Two

on the beach in Hawaii

A little pakalolo, and I say mahalo
ujjayi breathing, to get a real feeling
yogi gonna let you know
that I wish you were here with me

Guitar Two

on the beach in Hawaii
in Hawaii

Solo
e|-----------------------------------------------------------------------------|
B|-----------------------------------------------------------------------------|
G--16-16--16--13/16-16--18^-18--16--15--13/16--18^^--18--16-15-16^-------------|
D|-----------------------------------------------------------------------------|
A|-----------------------------------------------------------------------------|
E|-----------------------------------------------------------------------------|

Sorry but thats all I've got for the solo right now, I'll get the entire solo sometime 
though... Leave comments and rate!!!


| /  slide up
| \  slide down
| h  hammer-on
| p  pull-off
| ~  vibrato
| +  harmonic
| x  Mute note
            
Submit corrections

comments powered by Disqus
↑ Back to top | Ziggy Marley Tabs for Beach In Hawaii. Lyrics for acoustic guitar and electric guitar. Tablatures and chords are parodies/interpretations of the original songs. You may use it for private study, scholarship, research or language learning purposes only