» » »

Zero Boys, Drug Free Youth Bass tabs (ver.1)

Artists:  A B C D E F G H I J K L M N O P Q R S T U V W X Y Z # 

Drug Free Youth Bass tabs (ver.1)

Zero Boys Tabs
Rating:
0/5 (0 votes)
Drug Free Youth lessons Tabs too difficult? Try these video lessons and learn fast
                Intro
G----------------------------------|----------------------------------|
D----------------------------------|----------------------------------|
A----------------------------------|-4-(ring)-------------------------|
E----------------------------------|----------------------------------|

Verse
G----------------------------------|----------------------------------|
D----------------------------------|----------------------------------|
A-4-4-4-4-----------------5-5-5-5--|-4-4-4-4-----------------5-5-5-5--|
E---------4-4-4-4-5-5-5-5----------|---------4-4-4-4-5-5-5-5----------|

Chorus (no singing)
G--------------|--------------|
D--------------|--------------|
A-4-7--2-2-2-2-|-4-7--2-2-2-2-|
E--------------|--------------|

Verse 2
G----------------------------------|----------------------------------|
D----------------------------------|----------------------------------|
A-4-4-4-4-----------------5-5-5-5--|-4-4-4-4-----------------5-5-5-5--|
E---------4-4-4-4-5-5-5-5----------|---------4-4-4-4-5-5-5-5----------|

G----------------------------------|----------------------------------|
D----------------------------------|----------------------------------|
A-4-4-4-4-----------------5-5-5-5--|-4-4-4-4-----------------5-5-5-5--|
E---------4-4-4-4-5-5-5-5----------|---------4-4-4-4-5-5-5-5----------|

Chorus
G--------------|--------------|--------------|--------------|
D--------------|--------------|--------------|--------------|
A-4-7--2-2-2-2-|-4-7--2-2-2-2-|-4-7--2-2-2-2-|-4-7--2-2-2-2-|
E--------------|--------------|--------------|--------------|

Behind Solo
G----------------------------------|----------------------------------|
D----------------------------------|----------------------------------|
A-4-4-4-4-----------------5-5-5-5--|-4-4-4-4-----------------5-5-5-5--|
E---------4-4-4-4-5-5-5-5----------|---------4-4-4-4-5-5-5-5----------|

G----------------------------------|----------------------------------|
D----------------------------------|----------------------------------|
A-4-4-4-4-----------------5-5-5-5--|-4-4-4-4-----------------5-5-5-5--|
E---------4-4-4-4-5-5-5-5----------|---------4-4-4-4-5-5-5-5----------|

Chorus 
G--------------|--------------|--------------|--------------|
D--------------|--------------|--------------|--------------|
A-4-7--2-2-2-2-|-4-7--2-2-2-2-|-4-7--2-2-2-2-|-4-7--2-2-2-2-|
E--------------|--------------|--------------|--------------|

G----------------------------------|----------------------|
D----------------------------------|----------------------|
A-4*-------------------------------|-15/-4(ring)-4-4-4-4--|
E----------------------------------|----------------------|

Verse
G----------------------------------|----------------------------------|
D----------------------------------|----------------------------------|
A-4-4-4-4-----------------5-5-5-5--|-4-4-4-4-----------------5-5-5-5--|
E---------4-4-4-4-5-5-5-5----------|---------4-4-4-4-5-5-5-5----------|

Chorus 
G--------------|--------------|--------------|--------------|
D--------------|--------------|--------------|--------------|
A-4-7--2-2-2-2-|-4-7--2-2-2-2-|-4-7--2-2-2-2-|-4-7--2-2-2-2-|
E--------------|--------------|--------------|--------------|
            
Submit corrections

comments powered by Disqus
↑ Back to top | Zero Boys Bass for Drug Free Youth. Lyrics for acoustic guitar and electric guitar. Tablatures and chords are parodies/interpretations of the original songs. You may use it for private study, scholarship, research or language learning purposes only