» » »

Zero Boys, Drug Free Youth Tabs (ver.1)

Artists:  A B C D E F G H I J K L M N O P Q R S T U V W X Y Z # 

Drug Free Youth Tabs (ver.1)

Zero Boys Tabs
 Rating:
4/5 (4 votes)
Drug Free Youth lessons Tabs too difficult? Try these video lessons and learn fast
                Intro
E----------------------------------|----------------------------------|
B----------------------------------|----------------------------------|
G-6-6-6-6-----------------7-7-7-7--|-6-6-6-6-----------------7-7-7-7--|
D-6-6-6-6-6-6-6-6-7-7-7-7-7-7-7-7--|-6-6-6-6-6-6-6-6-7-7-7-7-7-7-7-7--|
A-4-4-4-4-6-6-6-6-7-7-7-7-5-5-5-5--|-4-4-4-4-6-6-6-6-7-7-7-7-5-5-5-5--|
E---------4-4-4-4-5-5-5-5----------|---------4-4-4-4-5-5-5-5----------|

Verse
E----------------------------------|----------------------------------|
B----------------------------------|----------------------------------|
G-6-6-6-6-----------------7-7-7-7--|-6-6-6-6-----------------7-7-7-7--|
D-6-6-6-6-6-6-6-6-7-7-7-7-7-7-7-7--|-6-6-6-6-6-6-6-6-7-7-7-7-7-7-7-7--|
A-4-4-4-4-6-6-6-6-7-7-7-7-5-5-5-5--|-4-4-4-4-6-6-6-6-7-7-7-7-5-5-5-5--|
E---------4-4-4-4-5-5-5-5----------|---------4-4-4-4-5-5-5-5----------|

Chorus (no singing)
E--------------|--------------|
B--------------|--------------|
G-6-9--4-4-4-4-|-6-9--4-4-4-4-|
D-6-9--4-4-4-4-|-6-9--4-4-4-4-|
A-4-7--2-2-2-2-|-4-7--2-2-2-2-|
E--------------|--------------|

Verse 2
E----------------------------------|----------------------------------|
B----------------------------------|----------------------------------|
G-6-6-6-6-----------------7-7-7-7--|-6-6-6-6-----------------7-7-7-7--|
D-6-6-6-6-6-6-6-6-7-7-7-7-7-7-7-7--|-6-6-6-6-6-6-6-6-7-7-7-7-7-7-7-7--|
A-4-4-4-4-6-6-6-6-7-7-7-7-5-5-5-5--|-4-4-4-4-6-6-6-6-7-7-7-7-5-5-5-5--|
E---------4-4-4-4-5-5-5-5----------|---------4-4-4-4-5-5-5-5----------|

E----------------------------------|----------------------------------|
B----------------------------------|----------------------------------|
G-6-6-6-6-----------------7-7-7-7--|-6-6-6-6-----------------7-7-7-7--|
D-6-6-6-6-6-6-6-6-7-7-7-7-7-7-7-7--|-6-6-6-6-6-6-6-6-7-7-7-7-7-7-7-7--|
A-4-4-4-4-6-6-6-6-7-7-7-7-5-5-5-5--|-4-4-4-4-6-6-6-6-7-7-7-7-5-5-5-5--|
E---------4-4-4-4-5-5-5-5----------|---------4-4-4-4-5-5-5-5----------|

Chorus
E--------------|--------------|--------------|--------------|
B--------------|--------------|--------------|--------------|
G-6-9--4-4-4-4-|-6-9--4-4-4-4-|-6-9--4-4-4-4-|-6-9--4-4-4-4-|
D-6-9--4-4-4-4-|-6-9--4-4-4-4-|-6-9--4-4-4-4-|-6-9--4-4-4-4-|
A-4-7--2-2-2-2-|-4-7--2-2-2-2-|-4-7--2-2-2-2-|-4-7--2-2-2-2-|
E--------------|--------------|--------------|--------------|

Solo (no idea...)

Chorus 
E--------------|--------------|--------------|--------------|
B--------------|--------------|--------------|--------------|
G-6-9--4-4-4-4-|-6-9--4-4-4-4-|-6-9--4-4-4-4-|-6-9--4-4-4-4-|
D-6-9--4-4-4-4-|-6-9--4-4-4-4-|-6-9--4-4-4-4-|-6-9--4-4-4-4-|
A-4-7--2-2-2-2-|-4-7--2-2-2-2-|-4-7--2-2-2-2-|-4-7--2-2-2-2-|
E--------------|--------------|--------------|--------------|

E----------------------------------|----------------------------------|
B----------------------------------|----------------------------------|
G-6-6-6-6-----------------7-7-7-7--|-6-6-6-6-----------------7-7-7-7--|
D-6-6-6-6-6-6-6-6-7-7-7-7-7-7-7-7--|-6-6-6-6-6-6-6-6-7-7-7-7-7-7-7-7--|
A-4-4-4-4-6-6-6-6-7-7-7-7-5-5-5-5--|-4-4-4-4-6-6-6-6-7-7-7-7-5-5-5-5--|
E---------4-4-4-4-5-5-5-5----------|---------4-4-4-4-5-5-5-5----------|

Verse
E----------------------------------|----------------------------------|
B----------------------------------|----------------------------------|
G-6-6-6-6-----------------7-7-7-7--|-6-6-6-6-----------------7-7-7-7--|
D-6-6-6-6-6-6-6-6-7-7-7-7-7-7-7-7--|-6-6-6-6-6-6-6-6-7-7-7-7-7-7-7-7--|
A-4-4-4-4-6-6-6-6-7-7-7-7-5-5-5-5--|-4-4-4-4-6-6-6-6-7-7-7-7-5-5-5-5--|
E---------4-4-4-4-5-5-5-5----------|---------4-4-4-4-5-5-5-5----------|

Chorus 
E--------------|--------------|--------------|--------------|
B--------------|--------------|--------------|--------------|
G-6-9--4-4-4-4-|-6-9--4-4-4-4-|-6-9--4-4-4-4-|-6-9--4-4-4-4-|
D-6-9--4-4-4-4-|-6-9--4-4-4-4-|-6-9--4-4-4-4-|-6-9--4-4-4-4-|
A-4-7--2-2-2-2-|-4-7--2-2-2-2-|-4-7--2-2-2-2-|-4-7--2-2-2-2-|
E--------------|--------------|--------------|--------------|
            
Submit corrections

comments powered by Disqus
↑ Back to top | Zero Boys Tabs for Drug Free Youth. Lyrics for acoustic guitar and electric guitar. Tablatures and chords are parodies/interpretations of the original songs. You may use it for private study, scholarship, research or language learning purposes only