» » »

Seduto Qua Bass tabs (ver.1)

Artists:  A B C D E F G H I J K L M N O P Q R S T U V W X Y Z # 

Seduto Qua Bass tabs (ver.1)

Zero Assoluto
Rating:
0/5 (0 votes)

Hard to play? Try these video lessons and learn fast.
                +++++++++++++++++++++++++++++
| Zero Assoluto- Seduto Qua |
+++++++++++++++++++++++++++++

Tuning: EADG

Intro
1.
G|-4-7-------------------------4~--4-4~--4-4~--4-4-|
D|-----5~--5-5~--5-2~--2-2~--2---------------------|
A|-------------------------------------------------|
E|-------------------------------------------------|

2.
G|-7/11-9-7~------7-9~----11-7~--------7/11-9-7~------7-9~----11-7~----|
D|--------------9-----------------------------------9------------------|
A|---------------------------------------------------------------------|
E|---------------------------------------------------------------------|

3.
G|---------------------------------|
D|-9p7h9~----9p7h9~----9-7-4-2~----|
A|---------------------------------|
E|---------------------------------|

Verse
"Sono giornate lunghe quando non vuoi uscire..."
4.
G|-------------------------------------------------|
D|-------------------------------------------------|
A|-------------------------2~--2-2~--2-2~--2-2~--2-|--x2
E|-3~--3-3~--3-0~--0-0~--0-------------------------|

Chorus
"Come ieri come sempre, attendere..."
5.
G|-7/11-9-7~------7-9~----11-7~--------7/11-9-7~------7-9~----11-7~----|
D|--------------9-----------------------------------9------------------|
A|---------------------------------------------------------------------|--x2
E|---------------------------------------------------------------------|

Outro
6.
G|-----------7/11~-9-7-9-7-----|
D|-9p7h9~------------------9-7-|
A|-----------------------------|
E|-----------------------------|

Verse
"C’è qualcuno che mi sente..."
7.
G|-------------------------------------------------|
D|-------------------------------------------------|
A|-------------------------2~--2-2~--2-2~--2-2~--2-|--x2
E|-3~--3-3~--3-0~--0-0~--0-------------------------|

Chorus
"Come ieri come sempre, attendere..."
8.
G|-7/11-9-7~------7-9~----11-7~--------7/11-9-7~------7-9~----11-7~----|
D|--------------9-----------------------------------9------------------|
A|---------------------------------------------------------------------|
E|---------------------------------------------------------------------|

9.
G|---------------------------------|
D|-9p7h9~----9p7h9~----9-7-4-2~----|
A|---------------------------------|
E|---------------------------------|

"Non posso stare, fermo e il tempo che se ne va..."
10.
G|-7/11-9-7~------7-9~----11-7~--------7/11-9-7~------7-9~----11-7~----|
D|--------------9-----------------------------------9------------------|
A|---------------------------------------------------------------------|--x2
E|---------------------------------------------------------------------|

Outro
11.
G|-7/11~-9-7-9-7-------|
D|---------------9-7-9-|
A|---------------------|
E|---------------------|

Bridge
"Non ti posso cercare piú, non ti posso trovare qui..."
12.
G|-4-7-------------------------4~--4-4~--4-4~--4-4-|
D|-----5~--5-5~--5-2~--2-2~--2---------------------|
A|-------------------------------------------------|--x2
E|-------------------------------------------------|

"Non ti posso cercare piú, non ti posso trovare qui..."
13.
G|-4-7-----------------------7-9-4~--4-4~--4-4~--4-4-|
D|-----5~--5-5~--5-2~--2-2-9-------------------------|
A|---------------------------------------------------|--x2
E|---------------------------------------------------|

Outro
14.
G|-7/11-9-7~------7-9~----11-7~--------7/11-9-7~------7-9~----11-7~----|
D|--------------9-----------------------------------9------------------|
A|---------------------------------------------------------------------|
E|---------------------------------------------------------------------|

15.
G|---------------------------------|
D|-9p7h9~----9p7h9~----9-7-4-2-----|
A|---------------------------------|
E|---------------------------------|

16.
G|-7/11-9-7~------7-9~----11-7~--------7/11-9-7~------7-9~----11-7~----|
D|--------------9-----------------------------------9------------------|
A|---------------------------------------------------------------------|
E|---------------------------------------------------------------------|

17.
G|------------------------------------|
D|-9p7h9~----9p7h9~----9-7-4-2~-0~----|
A|---------------------------------2x-|
E|------------------------------------|

Lyrics:

Sono giornate lunghe quando non vuoi uscire
Quando il cielo è buio e strano e non ti fa capire, quante cose devo ancora fare
Quante facce e quante strade ancora da vedere, se ti potessi solo raccontare
Quante sono le paure che non so scoprire, quelle vite che viste da qua
Mi descrivono la verità

Come ieri come sempre, attendere
Anche adesso come ieri, a scegliere
Non posso stare fermo e il tempo
Che se ne va, non posso stare
Per sempre seduto qua

C’è qualcuno che mi sente, eh, tutto quello che mi prende, eh,
È scomparso in un istante e mi serve per ridiventare grande eh,
Quante volte m’è l’hai detto, ogni sera che mi cerco nel riflesso
Si può con te
Ora lo so

Non ti posso cercare più, non ti posso trovare qui

+++++++++++++++++++++++++++++++++
| RaiLeff                       |
+++++++++++++++++++++++++++++++++
            
Hard to play? Try these video lessons and learn fast. | Correct




comments powered by Disqus
↑ Back to top | Tablatures and chords are parodies/interpretations of the original songs. You may use it for private study, scholarship, research or language learning purposes only