» » »

Zero Assoluto, Seduto Qua Chords (ver.1)

Artists:  A B C D E F G H I J K L M N O P Q R S T U V W X Y Z # 

Seduto Qua Chords (ver.1)

Zero Assoluto Tabs
 Rating:
4/5 (4 votes)
Seduto Qua lessons Tabs too difficult? Try these video lessons and learn fast
1
                +++++++++++++++++++++++++++++
| Zero Assoluto- Seduto Qua |
+++++++++++++++++++++++++++++


"Non posso stare fermo e il tempo che se ne va..."

Tuning: EADGBe


Chords used in this song:


Em: 022000
G:  320003
Bm: x24432



Intro


1.
e|------------------------------------------------|
B|-5b\3~--------0-3-5~--------7-3~----------------|
G|------------------------------------------------|
D|------------------------------------------------|
A|------------------------------------------------|
E|------------------------------------------------|


G - Em - Bm - Bm


Verse

     G
Sono   giornate lunghe quando non vuoi uscire
          Em                                        Bm
Quando il cielo è buio e strano e non ti fa capire,    quante cose devo ancora fare
                                               G
Quante facce e quante strade ancora da vedere,   se ti potessi solo raccontare
       Em                                 Bm
Quante sono le paure che non so scoprire,    quelle vite che viste da qua

Mi descrivono la verità


Chorus

2.
e|-------------------------------------------------|
B|-7-5-3~--------0-3-5~--------7-3~----------------|
G|-------------------------------------------------|
D|-------------------------------------------------|
A|-------------------------------------------------|
E|-------------------------------------------------|


      G         Em                Bm
Come ieri come sempre, attendere
        G          Em                Bm
Anche adesso come ieri, a scegliere
          G                Em                  Bm
Non posso stare fermo e il tempo che se ne va
          G         Em                   Bm
Non posso stare per sempre seduto qua


Verse


G - Em - Bm - Bm



Chorus

3.
e|-------------------------------------------------|
B|-7-5-3~--------0-3-5~--------7-3~----------------|
G|-------------------------------------------------|
D|-------------------------------------------------|
A|-------------------------------------------------|
E|-------------------------------------------------|


      G         Em                Bm
Come ieri come sempre, attendere
        G          Em                Bm
Anche adesso come ieri, a scegliere
          G                Em                  Bm
Non posso stare fermo e il tempo che se ne va
          G         Em                   Bm
Non posso stare per sempre seduto qua


Bridge

4.
e|------------------------------------------------|
B|-5b\3~--------0-3-5~--------7-0~----------------|
G|------------------------------------------------|
D|------------------------------------------------|
A|------------------------------------------------|
E|------------------------------------------------|




                 G    Em                   Bm
Non ti posso cercare più, non ti posso trovare qui



Outro

5.
e|------------------------------------------------|
B|-5b\3~--------0-3-5~--------7-3~----------------|
G|------------------------------------------------|
D|------------------------------------------------|
A|------------------------------------------------|
E|------------------------------------------------|


G - Em - Bm - Bm



Lyrics:


Sono giornate lunghe quando non vuoi uscire
Quando il cielo è buio e strano e non ti fa capire, quante cose devo ancora fare
Quante facce e quante strade ancora da vedere, se ti potessi solo raccontare
Quante sono le paure che non so scoprire, quelle vite che viste da qua
Mi descrivono la verità

Come ieri come sempre, attendere
Anche adesso come ieri, a scegliere
Non posso stare fermo e il tempo
Che se ne va, non posso stare
Per sempre seduto qua

C’è qualcuno che mi sente, eh, tutto quello che mi prende, eh,
È scomparso in un istante e mi serve per ridiventare grande eh,
Quante volte m’è l’hai detto, ogni sera che mi cerco nel riflesso
Si può con te
Ora lo so

Non ti posso cercare più, non ti posso trovare qui



+++++++++++++++++++++++++++++++++
| RaiLeff                       |
+++++++++++++++++++++++++++++++++
            
Submit corrections

comments powered by Disqus
↑ Back to top | Zero Assoluto Chords for Seduto Qua. Lyrics for acoustic guitar and electric guitar. 1 Tablatures and chords are parodies/interpretations of the original songs. You may use it for private study, scholarship, research or language learning purposes only