» » »

Look Up Bass tabs (ver.1)

Artists:  A B C D E F G H I J K L M N O P Q R S T U V W X Y Z # 

Look Up Bass tabs (ver.1)

Zero 7
Rating:
4/5 (1 vote)

Hard to play? Try these video lessons and learn fast.
                -------------------------------------------------------------------------------
                       Look Up - When it Falls - Zero 7
-------------------------------------------------------------------------------

Tuning:STANDARD (EADG)

I haven't transcribed a tab in a while, so here you go. These guys are my new favourite
band. Zero 7 fans stay tuned, because I'll be cracking more of their bass tabs real soon. 


Intro/Verse
(0:29)
G|------6~--x6h8------8~----6h8-8-----|
D|----8-------------8-----8-----------|
A|--6-------------6-------------------| x15
E|------------------------------------|

Post-Verse 
(1:39)
G|------6~--x6h8------8---6h88--6h88------|
D|----8-------------8---------------------|
A|--6-------------6-----------------------| 
E|------------------------------------\4--|

Pre-Chorus
(1:43)
G|----------------------------------|       G|------6~--x6h8------8~----6h8-8-----|
D|-------4~-x4h6------6~----4h6-6---|       D|----8-------------8-----8-----------|
A|-----6------------6-----6---------| x2    A|--6-------------6-------------------| x2         
E|---4------------4-----------------|       E|------------------------------------|

Chorus
(2:02)
G|------10----------9---------6~-x6h8-----8~----6h8-8--|
D|---10-----10----9----9----8-----------8-----8--------|
A|-8----------8\7-------7\6-----------6----------------| x2
E|-----------------------------------------------------|

Verse 2 
(2:20)..... x3

Post-Verse 2
(2:34)

Pre-Chorus
(2:38)

Chorus 2
(2:57)..... x2

Slide at the end of 2nd Chorus 
(3:16)
G|------|
D|------|
A|--6\--| 
E|------|


[Bass Break]


Bridge
(3:25)
G|--------------------6----6h8--|
D|------6-----4-----8-----8-----|
A|----6-----4----/6-------------| x12
E|--4-----2---------------------|

Bridge Filler
(4:16)
G|-------------------6-----------|
D|-----6-----4-----8------4-6-4--|
A|---6-----4----/6-----/6--------|
E|-4-----2-----------------------|

Bridge Cont.
(4:21)..... x3

Bridge Filler 2
(4:34)

Bridge/Outro
(4:39)..... x4



| /  slide up
| \  slide down
| h  hammer-on
| p  pull-off
| b  bend
| ~  vibrato
| +  harmonic
| x  Mute note
===============================================================================
            
Hard to play? Try these video lessons and learn fast. | Correct




comments powered by Disqus
↑ Back to top | Tablatures and chords are parodies/interpretations of the original songs. You may use it for private study, scholarship, research or language learning purposes only